Guitar Tabs, Chords and Lyrics
Major upgrade!! After one year development the new version of Chordie is now online! Please give feedback.


Daisy  Stone Temple Pilots

Date: Tue, 2 Jul 1996 14:26:58 -0400 (EDT)
======
Daisy
======
by Stone Temple Pilots
transcribed by Kevin Gardner code@wam.umd.edu
here is the chord progession
strum a steady four beat
Em7 B7 Em7 B7 B/E Am7 B7 Bm6 2X
G/B D E/G# 2X
[G/B] [D] [G] [B7]  
[Em7] [B7] [Em7] [B7] [B/E] [Am7] [B7] [Bm6]  
G/B D E/G# 2X
[G/B] [D] [G] [B7]  
here are the chords used
[Em7] [Bm7] [B/E] [Am7] [Bm6] [G/B]  
 
 -7- -7- --- -5- -7- -7-
 -8- -7- -5- -5- -8- -8-
 -7- -8- -5- -5- -7- -7-
 -9- -7- -5- -5- -7- -9-
 -7- -9- -7- -7- -9- -10-
 --- -7- --- -5- -7- -7-

[E/G#] [D] [G]  
 
 -4- --- -3-|
 -5- -7- -3-|
 -4- -7- -4-|
 -6- -7- -5-|
 -7- -5- -5-|
 -4- --- -3-|

Here is the slide lead
 
 -------------------------------------- | \
 -------------------------------------- |
 ---9--11/12-11--12/14-12--14/16-11---- |
 -9------------------------------------ |
 -------------------------------------- |
 -------------------------------------- |

2X
|
 
 -------------------------------------- |
 -------------------------------------- |
 ---/12-/11-9--11/12-11--12/14-16------ |
 -9------------------------------------ |
 -------------------------------------- |
 -------------------------------------- | /
 -----------------------|
 -----------------------|
 -16-14/12-11--12/14-13-|
 -----------------------|
 -----------------------|
 -----------------------|
 -----------------------|
 --------------------12-|
 -16-14/12-11--12/14----|
 -----------------------|
 -----------------------|
 -----------------------|
 -----------------------|
 -16-14/12-11--12/14-12-|
 -----------------------|
 -----------------------|
 -----------------------|
 ------------------------------------|
 ------------------------------------|
 ---9--11/12-11--12/14-12--14/16-11--|
 -9----------------------------------|
 ------------------------------------|
 ------------------------------------|
 ------------------------------------|
 ------------------------------------|
 ---/12-/11-9--11/12-11--12/14-16----|
 -9----------------------------------|
 ------------------------------------|
 ------------------------------------|
 -----------------------|
 -----------------------|
 -16-14/12-11--12/14-13-|
 -----------------------|
 -----------------------|
 -----------------------|
 -----------------------|
 -----------------------|
 --------------------12-|
 -16-14/12-11--12/14----|
 -----------------------|
 -----------------------|
 -----------------------|
 -----------------------|
 -16-14/12-11--12/14-12-|
 -----------------------|
 -----------------------|
 -----------------------|


Important: The song above is NOT stored on the Chordie server. The original song is hosted at www.guitaretab.com. Chordie works as a search engine and provides on-the-fly formatting. Chordie does not index songs against artists'/composers' will. To remove this song please click here.

Text color:
Chord color:
Chord grids: 
Font size:    
Page size: 

Am7 B/E B7 Bm6 Bm7 D E/G# Em7 G G/B
Rate #5 of 6 versions

Jango Player

Login - add to songbook

SHARE PAGE  




You need to log in to post comments