Guitar Tabs, Chords and Lyrics
Server problems seems to be fixed. Chordie has been experiencing problems with songs disappearing. These issues now seems to be fixed, but still verifying the fix. If you find anything strange, please email admin@chordie.com.


Tell Me (P.A.C.)  Story of the Year

***plain text tab generated with powertab***
www.myspace.com/ludwig104
TELL ME (P.A.C.)
As recorded by Story of the Year
(From the 2008 Album THE BLACK SWAN)
Transcribed by Sam Suplee
Words and Music by Story of the Year
Arranged by Story of the Year
Gtr I (C# G# C# F# A# D#) - 'Untitled'
Gtr II (C# G# C# F# A# D#) - 'Untitled'
Gtr III (C# G# C# F# A# D#) - 'Untitled'
Gtr IV (C# G# C# F# A# D#) - 'Untitled'
Intro
Q=110
[4/4] Gtr I
~~ ~~
Q S S S S E E S S E Q S S S S E E S S E
 
 |-----------------------|-----------------------|
 |-----------------------|-----------------------|
 |-----------------------|-----------------------|
 |-----------------------|-----------------------|
 |-----------------------|-----------------------|
 |-2--2p0-2-0-2-/5-4p2p0-|-2--2p0-2-0-2-/5-4p2p0-|

~~ ~~
Q S S S S E E S S E Q S S S S E E S S E
 
 |-----------------------|-----------------------|
 |-----------------------|-----------------------|
 |-----------------------|-----------------------|
 |-----------------------|-----------------0-0---|
 |-----------------------|-----------------0-0---|
 |-2--2p0-2-0-2-/5-4p2p0-|-2--2p0-2-0-2-/5-0-0---|

~~ ~~
Q S S S S E E S S E Q S S S S E E S S E
 
 ||------------------------|---------------------------||
 ||o-----------------------|--------------------------o||
 ||------------------------|---------------------------||
 ||--2---------------------|-2-------------------------||
 ||o-2---------------------|-2------------------------o||
 ||--2--2p0-2-0-2-/5-4p2p0-|-2--2p0-2-0-2-/5-4p2p0-----||

|
| Gtr II
| ~~ ~~
| Q S S S S E E S S E Q S S S S E E S S E
 
 ||------------------------|---------------------------||
 ||o-----------------------|--------------------------o||
 ||------------------------|---------------------------||
 ||--2---------------------|-2-------------------------||
 ||o-2---------------------|-2------------------------o||
 ||--2--2p0-2-0-2-/5-4p2p0-|-2--2p0-2-0-2-/5-4p2p0-----||

Solo/Intro
~~ ~~
Q S S S S E E S S E Q S S S S E E S S E
 
 |----------------------------|-------------------------------|
 |----------------------------|-------------------------------|
 |----------------------------|-------------------------------|
 |--2-------------------------|--2----------------------------|
 |--2-------------------------|--2----------------------------|
 |--2------2p0-2-0-2-/5-4p2p0-|--2-----2p0--2-0-2-/5-4p2p0----|

|
| ~~ ~~
| Q S S S S E E S S E Q S S S S E E S S E
 
 |----------------------------|-------------------------------|
 |----------------------------|-------------------------------|
 |----------------------------|-------------------------------|
 |--2-------------------------|--2----------------------------|
 |--2-------------------------|--2----------------------------|
 |--2------2p0-2-0-2-/5-4p2p0-|--2-----2p0--2-0-2-/5-4p2p0----|

|
| Gtr IV
| H H H H
 
 |-12-----12------------------|-14---------14-----------------|
 |-15b17--15------------------|-17b19------17-----------------|
 |----------------------------|-------------------------------|
 |----------------------------|-------------------------------|
 |----------------------------|-------------------------------|
 |----------------------------|-------------------------------|

~~ ~~
Q S S S S E E S S E Q S S S S E E S S E
 
 |----------------------------|----------------------------------|
 |----------------------------|----------------------------------|
 |----------------------------|----------------------------------|
 |--2-------------------------|--2-------------------------------|
 |--2-------------------------|--2-------------------------------|
 |--2------2p0-2-0-2-/5-4p2p0-|--2------2p===0-2-0-2-/5-4p2p0----|

|
| ~~ ~~
| Q S S S S E E S S E Q S S S S E E S S E
 
 |----------------------------|----------------------------------|
 |----------------------------|----------------------------------|
 |----------------------------|----------------------------------|
 |--2-------------------------|--2-------------------------------|
 |--2-------------------------|--2-------------------------------|
 |--2------2p0-2-0-2-/5-4p2p0-|--2------2p===0-2-0-2-/5-4p2p0----|

|
| H H H H
 
 |-12-----12------------------|-17-----19------------------------|
 |-15b17--15------------------|-20b22--22b24---------------------|
 |----------------------------|----------------------------------|
 |----------------------------|----------------------------------|
 |----------------------------|----------------------------------|
 |----------------------------|----------------------------------|

Verse
PM| PM PM| PM
W S S S S Q S S S S Q 3x
 
 ||-----------|-----------------------||
 ||o----------|----------------------o||
 ||--5--------|-----------------------||
 ||--5--------|---------0----------0--||
 ||o-3--------|-0-0---0-0--0-0---0-0-o||
 ||-----------|-0-0---0-0--0-0---0-0--||

W Q S S S S S S S S S S S S
 
 |----------|-------------------------------|
 |----------|-------------------------------|
 |-5--------|-------------------------------|
 |-5--------|-0-----------------------------|
 |-3--------|-0-----------------------------|
 |----------|-0--0-0-0-0-0-0-0-0-0-0-0-0----|

|
| Gtr II
| W Q S S S S S S S S S S S S
 
 |----------|-------------------------------|
 |----------|-------------------------------|
 |----------|-------------------------------|
 |----------|-0-----------------------------|
 |----------|-0-----------------------------|
 |----------|-0--0-0-0-0-0-0-0-0-0-0-0-0----|

S S S S S S S S S S S S Q
 
 |------------------------------|
 |------------------------------|
 |------------------------------|
 |------------------------------|
 |------------------------------|
 |-0-0-0-0-0-0-0-0-0-0-0-0------|

|
| S S S S S S S S S S S S Q
 
 |------------------------------|
 |------------------------------|
 |------------------------------|
 |------------------------------|
 |------------------------------|
 |-0-0-0-0-0-0-0-0-0-0-0-0------|

Chorus
Q E Q Q E Q E Q Q E
 
 |--------------|--------------|
 |--------------|--------------|
 |--------------|--------------|
 |-2--2-2--2--2-|-5--5-5--5--5-|
 |-2--2-2--2--2-|-5--5-5--5--5-|
 |-2--2-2--2--2-|-5--5-5--5--5-|

|
| Q E Q Q E Q E Q Q E
 
 |--------------|--------------|
 |--------------|--------------|
 |--------------|--------------|
 |-2--2-2--2--2-|-5--5-5--5--5-|
 |-2--2-2--2--2-|-5--5-5--5--5-|
 |-2--2-2--2--2-|-5--5-5--5--5-|

~~
Q E Q Q E Q E Q E S S E
 
 |--------------|------------------|
 |--------------|------------------|
 |--------------|------------------|
 |-7--7-7--7--7-|-7--7-7-----------|
 |-5--5-5--5--5-|-7--7-7-----------|
 |-0--0-0--0--0-|-7--7-7--/5-4p2p0-|

|
| ~~
| Q E Q Q E Q E Q E S S E
 
 |--------------|------------------|
 |--------------|------------------|
 |--------------|------------------|
 |-7--7-7--7--7-|-7--7-7-----------|
 |-5--5-5--5--5-|-7--7-7-----------|
 |-0--0-0--0--0-|-7--7-7--/5-4p2p0-|

Q E Q Q E Q E Q Q E
 
 |--------------|--------------|
 |--------------|--------------|
 |--------------|--------------|
 |-2--2-2--2--2-|-5--5-5--5--5-|
 |-2--2-2--2--2-|-5--5-5--5--5-|
 |-2--2-2--2--2-|-5--5-5--5--5-|

|
| Q E Q Q E Q E Q Q E
 
 |--------------|--------------|
 |--------------|--------------|
 |--------------|--------------|
 |-2--2-2--2--2-|-5--5-5--5--5-|
 |-2--2-2--2--2-|-5--5-5--5--5-|
 |-2--2-2--2--2-|-5--5-5--5--5-|

~~
Q E Q Q E Q E Q E S S E
 
 |--------------|------------------|
 |--------------|------------------|
 |--------------|------------------|
 |-7--7-7--7--7-|-7--7-7-----------|
 |-5--5-5--5--5-|-5--5-5-----------|
 |-0--0-0--0--0-|-0--0-0--/5-4p2p0-|

|
| ~~
| Q E Q Q E Q E Q E S S E
 
 |--------------|------------------|
 |--------------|------------------|
 |--------------|------------------|
 |-7--7-7--7--7-|-7--7-7-----------|
 |-5--5-5--5--5-|-5--5-5-----------|
 |-0--0-0--0--0-|-0--0-0--/5-4p2-0-|

Verse
PM| PM PM| PM
W S S S S Q S S S S Q
 
 |----------|-----------------------|
 |----------|-----------------------|
 |-5--------|-----------------------|
 |-5--------|---------0----------0--|
 |-3--------|-0-0---0-0--0-0---0-0--|
 |----------|-0-0---0-0--0-0---0-0--|

PM| PM PM| PM
W S S S S Q S S S S Q
 
 |----------|-----------------------|
 |----------|-----------------------|
 |-5--------|-----------------------|
 |-5--------|---------0----------0--|
 |-3--------|-0-0---0-0--0-0---0-0--|
 |----------|-0-0---0-0--0-0---0-0--|
 PM----------------| PM PM| PM

E E E E E E E E S S S S Q S S S S Q
 
 |-----------------|-----------------------|
 |-----------------|-----------------------|
 |-5---------------|-----------------------|
 |-5-5-5-5-5-5-5-5-|---------0----------0--|
 |-3-3-3-3-3-3-3-3-|-0-0---0-0--0-0---0-0--|
 |-5-5-5-5-5-5-5-5-|-0-0---0-0--0-0---0-0--|

|
| Gtr II
 
 | PM----------------| PM PM| PM

| E E E E E E E E S S S S Q S S S S Q
 
 |-----------------|-----------------------|
 |-----------------|-----------------------|
 |-5---------------|-----------------------|
 |-5-5-5-5-5-5-5-5-|---------0----------0--|
 |-3-3-3-3-3-3-3-3-|-0-0---0-0--0-0---0-0--|
 |-5-5-5-5-5-5-5-5-|-0-0---0-0--0-0---0-0--|
 PM----------|

E E E E E E E E Q S S S S S S S S S S S S
 
 |-----------------|----------------------------|
 |-----------------|----------------------------|
 |-5---------------|----------------------------|
 |-5-5-5-5-5-5-5-5-|-0--------------------------|
 |-3-3-3-3-3-3-3-3-|-0--------------------------|
 |-5-5-5-5-5-5-5-5-|-0--0-0-0-0-0-0-0-0-0-0-0-0-|

|
 
 | PM----------|

| E E E E E E E E Q S S S S S S S S S S S S
 
 |-----------------|----------------------------|
 |-----------------|----------------------------|
 |-5---------------|----------------------------|
 |-5-5-5-5-5-5-5-5-|-0--------------------------|
 |-3-3-3-3-3-3-3-3-|-0--------------------------|
 |-5-5-5-5-5-5-5-5-|-0--0-0-0-0-0-0-0-0-0-0-0-0-|

S S S S S S S S S S S S Q
 
 |----------------------------|
 |----------------------------|
 |----------------------------|
 |----------------------------|
 |----------------------------|
 |-0-0-0-0-0-0-0-0-0-0-0-0----|

|
| S S S S S S S S S S S S Q
 
 |----------------------------|
 |----------------------------|
 |----------------------------|
 |----------------------------|
 |----------------------------|
 |-0-0-0-0-0-0-0-0-0-0-0-0----|

Chorus
Q E Q Q E Q E Q Q E
 
 |--------------|--------------|
 |--------------|--------------|
 |--------------|--------------|
 |-2--2-2--2--2-|-5--5-5--5--5-|
 |-2--2-2--2--2-|-5--5-5--5--5-|
 |-2--2-2--2--2-|-5--5-5--5--5-|

|
| Q E Q Q E Q E Q Q E
 
 |--------------|--------------|
 |--------------|--------------|
 |--------------|--------------|
 |-2--2-2--2--2-|-5--5-5--5--5-|
 |-2--2-2--2--2-|-5--5-5--5--5-|
 |-2--2-2--2--2-|-5--5-5--5--5-|

~~
Q E Q Q E Q E Q E S S E
 
 |--------------|------------------|
 |--------------|------------------|
 |--------------|------------------|
 |-7--7-7--7--7-|-7--7-7-----------|
 |-5--5-5--5--5-|-7--7-7-----------|
 |-0--0-0--0--0-|-7--7-7--/5-4p2p0-|

|
| ~~
| Q E Q Q E Q E Q E S S E
 
 |--------------|------------------|
 |--------------|------------------|
 |--------------|------------------|
 |-7--7-7--7--7-|-7--7-7-----------|
 |-5--5-5--5--5-|-7--7-7-----------|
 |-0--0-0--0--0-|-7--7-7--/5-4p2p0-|

Q E Q Q E Q E Q Q E
 
 |--------------|--------------|
 |--------------|--------------|
 |--------------|--------------|
 |-2--2-2--2--2-|-5--5-5--5--5-|
 |-2--2-2--2--2-|-5--5-5--5--5-|
 |-2--2-2--2--2-|-5--5-5--5--5-|

|
| Q E Q Q E Q E Q Q E
 
 |--------------|--------------|
 |--------------|--------------|
 |--------------|--------------|
 |-2--2-2--2--2-|-5--5-5--5--5-|
 |-2--2-2--2--2-|-5--5-5--5--5-|
 |-2--2-2--2--2-|-5--5-5--5--5-|

Q E Q Q E Q E Q Q E E E E E E E S E.
 
 |--------------|--------------|------------------|
 |--------------|--------------|------------------|
 |--------------|--------------|------------------|
 |-7--7-7--7--7-|-7--7-7--7--7-|-7-7-7-7-7-7-7-0--|
 |-5--5-5--5--5-|-7--7-7--7--7-|-7-7-7-7-7-7-7-0--|
 |-0--0-0--0--0-|-7--7-7--7--7-|-7-7-7-7-7-7-7-0--|

|
| Q E Q Q E Q E Q Q E E E E E E E S E.
 
 |--------------|--------------|------------------|
 |--------------|--------------|------------------|
 |--------------|--------------|------------------|
 |-7--7-7--7--7-|-7--7-7--7--7-|-7-7-7-7-7-7-7-0--|
 |-5--5-5--5--5-|-7--7-7--7--7-|-7-7-7-7-7-7-7-0--|
 |-0--0-0--0--0-|-7--7-7--7--7-|-7-7-7-7-7-7-7-0--|

Breakdown
~~ ~~
Q S S S S E E S S E Q S S S S E E S S E
 
 |-----------------------|-----------------------|
 |-----------------------|-----------------------|
 |-----------------------|-----------------------|
 |-2---------------------|-2---------------------|
 |-2---------------------|-2---------------------|
 |-2--2p0-2-0-2-/5-4p2p0-|-2--2p0-2-0-2-/5-4p2p0-|

|
| ~~ ~~
| Q S S S S E E S S E Q S S S S E E S S E
 
 |-----------------------|-----------------------|
 |-----------------------|-----------------------|
 |-----------------------|-----------------------|
 |-2---------------------|-2---------------------|
 |-2---------------------|-2---------------------|
 |-2--2p0-2-0-2-/5-4p2p0-|-2--2p0-2-0-2-/5-4p2p0-|

~~ ~~
Q S S S S E E S S E Q S S S S E E S S E
 
 |-----------------------|-----------------------|
 |-----------------------|-----------------------|
 |-----------------------|-----------------------|
 |-2---------------------|-2---------------------|
 |-2---------------------|-2---------------------|
 |-2--2p0-2-0-2-/5-4p2p0-|-2--2p0-2-0-2-/5-4p2p0-|

|
| ~~ ~~
| Q S S S S E E S S E Q S S S S E E S S E
 
 |-----------------------|-----------------------|
 |-----------------------|-----------------------|
 |-----------------------|-----------------------|
 |-2---------------------|-2---------------------|
 |-2---------------------|-2---------------------|
 |-2--2p0-2-0-2-/5-4p2p0-|-2--2p0-2-0-2-/5-4p2p0-|

Bridge
W W W W
 
 |---------------|-------------|---------------|----------------|
 |---------------|-------------|---------------|----------------|
 |-5-------------|-------------|-5-------------|----------------|
 |-5-------------|-2-----------|-5-------------|-0--------------|
 |-3-------------|-2-----------|-3-------------|-0--------------|
 |---------------|-2-----------|---------------|-0--------------|

|
| Gtr III
| E E E Q Q E E E H. E E E Q Q E E E E E E E Q
 
 |---------------|-------------|---------------|----------------|
 |---------------|-------------|---------------|----------------|
 |-------5-----0-|-------------|-------5-----0-|---------7s9-7--|
 |---5------5----|---9---------|---5------5----|-----7----------|
 |-3---3---------|-7---7-------|-3---3---------|---0---0--------|
 |---------------|-------------|---------------|-0--------------|

W W W W
 
 |---------------|-------------|---------------|----------------|
 |---------------|-------------|---------------|----------------|
 |-5-------------|-------------|-5-------------|----------------|
 |-5-------------|-2-----------|-5-------------|-0--------------|
 |-3-------------|-2-----------|-3-------------|-0--------------|
 |---------------|-2-----------|---------------|-0--------------|

|
| E E E Q Q E E E H. E E E Q Q E E E E E E E Q
 
 |---------------|-------------|---------------|----------------|
 |---------------|-------------|---------------|----------------|
 |-------5-----0-|-------------|-------5-----0-|---------7s9-7--|
 |---5------5----|---9---------|---5------5----|-----7----------|
 |-3---3---------|-7---7-------|-3---3---------|---0---0--------|
 |---------------|-------------|---------------|-0--------------|
 PM----------------------------------

[E] [E] [E] [E] [E] [E] [E] [E] [E] [E] [E] [E] [E] [E] [E] [E]  
 
 |-----------------|------------------|
 |-----------------|------------------|
 |-----------------|------------------|
 |-5-5-5-5-5-5-5-5-|------------------|
 |-3-3-3-3-3-3-3-3-|-2-2-2--2-2-2-2-2-|
 |-----------------|-2-2-2--2-2-2-2-2-|

|
| E E E Q Q E E E H.
 
 |-----------------|------------------|
 |-----------------|------------------|
 |-------5-------0-|------------------|
 |---5-------5-----|---9--------------|
 |-3---3-----------|-7---7------------|
 |-----------------|------------------|
 -------------------------------------------------|

E E E E E E E E S S S S S S S S S S S S S S S S
 
 |-----------------|-----------------------------------|
 |-----------------|-----------------------------------|
 |-----------------|-----------------------------------|
 |-5-5-5-5-5-5-5-5-|-----------------------------------|
 |-3-3-3-3-3-3-3-3-|-0-0-0-0-0-0-0-0-0-0-0-0-0-0-0-0---|
 |-----------------|-0-0-0-0-0-0-0-0-0-0-0-0-0-0-0-0---|

|
| E E E Q Q E E E E E E E Q
 
 |-----------------|-----------------------------------|
 |-----------------|-----------------------------------|
 |-------5-------0-|-----------------7s==9---7---------|
 |---5-------5-----|---------7-------------------------|
 |-3---3-----------|-----0-------0---------------------|
 |-----------------|-0---------------------------------|

Bridge 2
PM PM PM PM PM PM PM PM PM PM PM PM
S E S E E S E S E E S E S E E S E S E E S E S E E S E S E E
 
 |---------------------|---------------------|----------------------|
 |---------------------|---------------------|----------------------|
 |---------------------|---------------------|----------------------|
 |---5---------7-------|---5---------7-------|---5---------7--------|
 |-0-3-0-5s7-0-5-0-7s9-|-0-3-0-5s7-0-5-0-7s9-|-0-3-0-5s7-0-5-0-7s9--|
 |-0---0-----0---0-----|-0---0-----0---0-----|-0---0-----0---0------|

|
| Gtr II
| PM PM PM PM PM PM PM PM PM PM PM PM
| S E S E E S E S E E S E S E E S E S E E S E S E E S E S E E
 
 |---------------------|---------------------|----------------------|
 |---------------------|---------------------|----------------------|
 |---------------------|---------------------|----------------------|
 |---5---4s5---7---5s7-|---5---4s5---7---5s7-|---5---4s5---7---5s7--|
 |-0-3-0-----0-5-0-----|-0-3-0-----0-5-0-----|-0-3-0-----0-5-0------|
 |-0---0-----0---0-----|-0---0-----0---0-----|-0---0-----0---0------|

S S S S S S S S S S S S S S S S
 
 |---------------------------------|
 |---------------------------------|
 |---------------------------------|
 |-5-5-5-5-5-5-5-5-7-7-7-7-7-7-7-7-|
 |-3-3-3-3-3-3-3-3-5-5-5-5-5-5-5-5-|
 |---------------------------------|

|
| S S S S S S S S S S S S S S S S
 
 |---------------------------------|
 |---------------------------------|
 |---------------------------------|
 |-5-5-5-5-5-5-5-5-7-7-7-7-7-7-7-7-|
 |-3-3-3-3-3-3-3-3-5-5-5-5-5-5-5-5-|
 |---------------------------------|

Piano/Chorus
W W W H. Q
 
 |----------|----------|----------|------------|
 |----------|----------|----------|------------|
 |----------|----------|----------|------------|
 |-2--------|-5--------|-0--------|-7----------|
 |-2--------|-5--------|-0--------|-7----------|
 |-2--------|-5--------|-0--------|-7----------|

|
| <
| W W W H. Q
 
 |----------|----------|----------|------------|
 |----------|----------|----------|------------|
 |----------|----------|----------|------------|
 |----------|----------|----------|-7----------|
 |----------|----------|----------|-7----------|
 |----------|----------|----------|-7----------|

Q E Q Q E Q E Q Q E
 
 |--------------|--------------|
 |--------------|--------------|
 |--------------|--------------|
 |-2--2-2--2--2-|-5--5-5--5--5-|
 |-2--2-2--2--2-|-5--5-5--5--5-|
 |-2--2-2--2--2-|-5--5-5--5--5-|

|
| Q E Q Q E Q E Q Q E
 
 |--------------|--------------|
 |--------------|--------------|
 |--------------|--------------|
 |-2--2-2--2--2-|-5--5-5--5--5-|
 |-2--2-2--2--2-|-5--5-5--5--5-|
 |-2--2-2--2--2-|-5--5-5--5--5-|

~~
Q E Q Q E Q E Q E S S E
 
 |--------------|------------------|
 |--------------|------------------|
 |--------------|------------------|
 |-7--7-7--7--7-|-7--7-7-----------|
 |-5--5-5--5--5-|-7--7-7-----------|
 |-0--0-0--0--0-|-7--7-7--/5-4p2p0-|

|
| ~~
| Q E Q Q E Q E Q E S S E
 
 |--------------|------------------|
 |--------------|------------------|
 |--------------|------------------|
 |-7--7-7--7--7-|-7--7-7-----------|
 |-5--5-5--5--5-|-7--7-7-----------|
 |-0--0-0--0--0-|-7--7-7--/5-4p2p0-|

Q E Q Q E Q E Q Q E
 
 |--------------|--------------|
 |--------------|--------------|
 |--------------|--------------|
 |-2--2-2--2--2-|-5--5-5--5--5-|
 |-2--2-2--2--2-|-5--5-5--5--5-|
 |-2--2-2--2--2-|-5--5-5--5--5-|

|
| Q E Q Q E Q E Q Q E
 
 |--------------|--------------|
 |--------------|--------------|
 |--------------|--------------|
 |-2--2-2--2--2-|-5--5-5--5--5-|
 |-2--2-2--2--2-|-5--5-5--5--5-|
 |-2--2-2--2--2-|-5--5-5--5--5-|

~~
Q E Q Q E Q E Q E S S E
 
 |--------------|------------------|
 |--------------|------------------|
 |--------------|------------------|
 |-7--7-7--7--7-|-7--7-7-----------|
 |-5--5-5--5--5-|-7--7-7-----------|
 |-0--0-0--0--0-|-7--7-7--/5-4p2p0-|

|
| ~~
| Q E Q Q E Q E Q E S S E
 
 |--------------|------------------|
 |--------------|------------------|
 |--------------|------------------|
 |-7--7-7--7--7-|-7--7-7-----------|
 |-5--5-5--5--5-|-7--7-7-----------|
 |-0--0-0--0--0-|-7--7-7--/5-4p2p0-|

Q E Q Q E Q E Q Q E
 
 |--------------|--------------|
 |--------------|--------------|
 |--------------|--------------|
 |-2--2-2--2--2-|-5--5-5--5--5-|
 |-2--2-2--2--2-|-5--5-5--5--5-|
 |-2--2-2--2--2-|-5--5-5--5--5-|

|
| Q E Q Q E Q E Q Q E
 
 |--------------|--------------|
 |--------------|--------------|
 |--------------|--------------|
 |-2--2-2--2--2-|-5--5-5--5--5-|
 |-2--2-2--2--2-|-5--5-5--5--5-|
 |-2--2-2--2--2-|-5--5-5--5--5-|

Q E Q Q E Q E Q Q E E E E E E E S E.
 
 |--------------|--------------|------------------|
 |--------------|--------------|------------------|
 |--------------|--------------|------------------|
 |-7--7-7--7--7-|-7--7-7--7--7-|-7-7-7-7-7-7-7-0--|
 |-5--5-5--5--5-|-7--7-7--7--7-|-7-7-7-7-7-7-7-0--|
 |-0--0-0--0--0-|-7--7-7--7--7-|-7-7-7-7-7-7-7-0--|

|
| Q E Q Q E Q E Q Q E E E E E E E S E.
 
 |--------------|--------------|------------------|
 |--------------|--------------|------------------|
 |--------------|--------------|------------------|
 |-7--7-7--7--7-|-7--7-7--7--7-|-7-7-7-7-7-7-7-0--|
 |-5--5-5--5--5-|-7--7-7--7--7-|-7-7-7-7-7-7-7-0--|
 |-0--0-0--0--0-|-7--7-7--7--7-|-7-7-7-7-7-7-7-0--|

Outro
~~ ~~
Q S S S S E E S S E Q S S S S E E S S E
 
 |-----------------------|-----------------------|
 |-----------------------|-----------------------|
 |-----------------------|-----------------------|
 |-----------------------|-----------------0-0---|
 |-----------------------|-----------------0-0---|
 |-2--2p0-2-0-2-/5-4p2p0-|-2--2p0-2-0-2-/5-0-0---|

|
| ~~ ~~
| Q S S S S E E S S E Q S S S S E E S S E
 
 |-----------------------|-----------------------|
 |-----------------------|-----------------------|
 |-----------------------|-----------------------|
 |-----------------------|-----------------0-0---|
 |-----------------------|-----------------0-0---|
 |-2--2p0-2-0-2-/5-4p2p0-|-2--2p0-2-0-2-/5-0-0---|

~~ ~~
Q S S S S E E S S E Q S S S S E E S S E
 
 |-----------------------|-----------------------|
 |-----------------------|-----------------------|
 |-----------------------|-----------------------|
 |-2---------------------|-2---------------------|
 |-2---------------------|-2---------------------|
 |-2--2p0-2-0-2-/5-4p2p0-|-2--2p0-2-0-2-/5-4p2p0-|

|
| ~~ ~~
| Q S S S S E E S S E Q S S S S E E S S E
 
 |-----------------------|-----------------------|
 |-----------------------|-----------------------|
 |-----------------------|-----------------------|
 |-2---------------------|-2---------------------|
 |-2---------------------|-2---------------------|
 |-2--2p0-2-0-2-/5-4p2p0-|-2--2p0-2-0-2-/5-4p2p0-|

~~ ~~
Q S S S S E E S S E Q S S S S E E S S E
 
 |-----------------------|-----------------------|
 |-----------------------|-----------------------|
 |-----------------------|-----------------------|
 |-2---------------------|-2---------------------|
 |-2---------------------|-2---------------------|
 |-2--2p0-2-0-2-/5-4p2p0-|-2--2p0-2-0-2-/5-4p2p0-|

|
| ~~ ~~
| Q S S S S E E S S E Q S S S S E E S S E
 
 |-----------------------|-----------------------|
 |-----------------------|-----------------------|
 |-----------------------|-----------------------|
 |-2---------------------|-2---------------------|
 |-2---------------------|-2---------------------|
 |-2--2p0-2-0-2-/5-4p2p0-|-2--2p0-2-0-2-/5-4p2p0-|

~~ ~~
Q S S S S E E S S E Q S S S S E E S S E
 
 |-----------------------|-----------------------|
 |-----------------------|-----------------------|
 |-----------------------|-----------------------|
 |-2---------------------|-2---------------------|
 |-2---------------------|-2---------------------|
 |-2--2p0-2-0-2-/5-4p2p0-|-2--2p0-2-0-2-/5-4p2p0-|

|
| ~~ ~~
| Q S S S S E E S S E Q S S S S E E S S E
 
 |-----------------------|-----------------------|
 |-----------------------|-----------------------|
 |-----------------------|-----------------------|
 |-2---------------------|-2---------------------|
 |-2---------------------|-2---------------------|
 |-2--2p0-2-0-2-/5-4p2p0-|-2--2p0-2-0-2-/5-4p2p0-|

~~ ~~
Q S S S S E E S S E Q S S S S E E S S E
 
 |-----------------------|-----------------------|
 |-----------------------|-----------------------|
 |-----------------------|-----------------------|
 |-2---------------------|-2---------------------|
 |-2---------------------|-2---------------------|
 |-2--2p0-2-0-2-/5-4p2p0-|-2--2p0-2-0-2-/5-4p2p0-|

|
| ~~ ~~
| Q S S S S E E S S E Q S S S S E E S S E
 
 |-----------------------|-----------------------|
 |-----------------------|-----------------------|
 |-----------------------|-----------------------|
 |-2---------------------|-2---------------------|
 |-2---------------------|-2---------------------|
 |-2--2p0-2-0-2-/5-4p2p0-|-2--2p0-2-0-2-/5-4p2p0-|

~~
W E S S E Q Q.
 
 |----------|------------------*|
 |----------|------------------*|
 |----------|------------------*|
 |-0--------|----------2-------*|
 |-0--------|----------2-------*|
 |-0--------|-/5-4-2-0-2-------*|

|
| Gtr II
| ~~
| W E S S E Q Q.
 
 |----------|------------------*|
 |----------|------------------*|
 |----------|------------------*|
 |-0--------|----------2-------*|
 |-0--------|----------2-------*|
 |-0--------|-/5-4-2-0-2-------*|
 --------------------------------------------------------------------------------

Duration Legend
 
 ---------------
 W - whole; H - half; Q - quarter; E - 8th; S - 16th; T - 32nd; X - 64th; a - acciaccatura

+ - note tied to previous; . - note dotted; .. - note double dotted
Uncapitalized letters represent notes that are staccato (1/2 duration)
Irregular groupings are notated above the duration line
Duration letters will always appear directly above the note/fret number it represents the
duration for. Duration letters with no fret number below them represent rests. Multi-
bar rests are notated in the form Wxn, where n is the number of bars to rest for. Low
melody durations appear below the staff
Tablature Legend
 
 ----------------

h - hammer-on
p - pull-off
b - bend
pb - pre-bend
r - bend release (if no number after the r, then release immediately)
/\ - slide into or out of (from/to "nowhere")
s - legato slide
S - shift slide
- natural harmonic
(n) - artificial harmonic
n(n) - tapped harmonic
~ - vibrato
tr - trill
T - tap
TP - trem. picking
PM - palm muting
\n/ - tremolo bar dip; n = amount to dip
\n - tremolo bar down
n/ - tremolo bar up
/n\ - tremolo bar inverted dip
= - hold bend; also acts as connecting device for hammers/pulls
- volume swell (louder/softer)
x - on rhythm slash represents muted slash
o - on rhythm slash represents single note slash
Misc Legend
 
 -----------

| - bar
|| - double bar
||o - repeat start
o|| - repeat end
*| - double bar (ending)
: - bar (freetime)
$ - Segno
& - Coda
Tempo markers - = BPM(8/16=s8/s16), where s8 = swing 8ths, s16 = swing 16ths
 
 --------------------------------------------------------------------------------

** Generated using Power Tab Editor by Brad Larsen: The Official Power Tab Web Site

Important: The song above is NOT stored on the Chordie server. The original song is hosted at www.guitaretab.com. Chordie works as a search engine and provides on-the-fly formatting. Chordie does not index songs against artists'/composers' will. To remove this song please click here.

Text color:
Chord color:
Chord grids: 
Font size:    
Page size: 

E
Rate #1 of 3 versions

Login - add to songbook

SHARE PAGE  




You need to log in to post comments