Guitar Tabs, Chords and Lyrics
Server problems seems to be fixed. Chordie has been experiencing problems with songs disappearing. These issues now seems to be fixed, but still verifying the fix. If you find anything strange, please email admin@chordie.com.


We're Not Gonna Make It  Story of the Year

**plain text tab generated with powertab**
WE'RE NOT GONNA MAKE IT
As recorded by Story of the Year
Transcribed by Sam Suplee(myspace.com/ludwig104)
Gtr I (C# G# C# F# A# D#) - 'Untitled'
Gtr II (C# G# C# F# A# D#) - 'Untitled'
Gtr III (C# G# C# F# A# D#) - 'Untitled'
Intro
Q=110
[4/4] Gtr I
W W
 
 |-^7--------|--------|
 |-^7--------|-^12----|
 |-^9--------|-^11----|
 |-^9--------|-^13----|
 |-^7--------|-^11----|
 |-----------|--------|

Gtr II
 
 PM------------|

W H S S S S S S S S
 
 |-^7--------|----------------------------|
 |-^7--------|-^12------------------------|
 |-^9--------|-^11------------------------|
 |-^9--------|-^13------------------------|
 |-^7--------|-^11-----2-2-2-2-2-2-2-2----|
 |-----------|---------2-2-2-2-2-2-2-2----|

Gtr II
S S S S S S S S S S S S S S S S S S S S S S S S S S S S S S S S
 
 ||----------------------------------|----------------------------------||
 ||o---------------------------------|---------------------------------o||
 ||----------------------------------|----------------------------------||
 ||--9-9-9-9-9-9-9-9-9-9-9-9-9-9-9-9-|-9-9-9-9-9-9-9-9-9-9-9-9-9-9-9-9--||
 ||o-7-7-7-7-7-7-7-7-7-7-7-7-7-7-7-7-|-7-7-7-7-7-7-7-7-7-7-7-7-7-7-7-7-o||
 ||----------------------------------|----------------------------------||

|
| Gtr III
| S S S S S S S S S S S S S S S S S S S S S S S S S S S S S S S S
 
 ||----------------------------------|----------------------------------||
 ||o---------------------------------|---------------------------------o||
 ||----------------------------------|----------------------------------||
 ||--2-2-2-2-2-2-2-2-2-2-2-2-2-2-2-2-|-6-6-6-6-6-6-6-6-6-6-6-6-6-6-6-6--||
 ||o-2-2-2-2-2-2-2-2-2-2-2-2-2-2-2-2-|-6-6-6-6-6-6-6-6-6-6-6-6-6-6-6-6-o||
 ||--2-2-2-2-2-2-2-2-2-2-2-2-2-2-2-2-|-6-6-6-6-6-6-6-6-6-6-6-6-6-6-6-6--||

Intro/Solo
S S S S S S S S S S S S S S S S S S S S S S S S S S S S S S S S
 
 |-----------------------------------------|-----------------------------------|
 |-----------------------------------------|-----------------------------------|
 |-----------------------------------------|-----------------------------------|
 |-2---2---2---2-2---2-2-2-2-2-2-2-2-2-2-2-|-6-6-6-6-6---6-6-6-6-6-6-6-6-6-6-6-|
 |-2---2---2---2-2---2-2-2-2-2-2-2-2-2-2-2-|-6-6-6-6-6---6-6-6-6-6-6-6-6-6-6-6-|
 |-2---2---2---2-2---2-2-2-2-2-2-2-2-2-2-2-|-6-6-6-6-6---6-6-6-6-6-6-6-6-6-6-6-|

|
| ~ ~
| E S S E Q E Q Q S S Q. Q
 
 |-----------------------------------------|-----------------------------------|
 |-4---4-4-4-----4-------------------------|-----------------------------------|
 |-6b8-----6b8---6b8-----------3-4---------|-3---3-----------------------------|
 |-----------------------------------------|-------6-4b5-----4-----------------|
 |-----------------------------------------|-----------------------------------|
 |-----------------------------------------|-----------------------------------|

S S S S S S S S S S S S S S S S S S S S S S S S S S S S S S S S
 
 |-----------------------------------|---------------------------------------|
 |-----------------------------------|---------------------------------------|
 |-----------------------------------|---------------------------------------|
 |--4-4-4-4-4-4-4--4-4-4-4-4-4-4-4-4-|-4--4-4-4-4-4-4----4-4--4-4--4-4-4-4-4-|
 |--4-4-4-4-4-4-4--4-4-4-4-4-4-4-4-4-|-4--4-4-4-4-4-4----4-4--4-4--4-4-4-4-4-|
 |--4-4-4-4-4-4-4--4-4-4-4-4-4-4-4-4-|-4--4-4-4-4-4-4----4-4--4-4--4-4-4-4-4-|

|
| This part isn't right ~~ ~~ ~~~
| Q S S S S Q S S S S Q S S S S Q S S E
 
 |-----------------------------------|---------------------------------------|
 |-----------------------------------|---------------------------------------|
 |-----------------------------------|---------------------------------------|
 |-/6-----4-6-4-6-/8---------6-8-6-8-|---/9---8-9-8-9--/11---11-9-11---------|
 |-----------------------------------|---------------------------------------|
 |-----------------------------------|---------------------------------------|

Verse
Gtr I
PM| PM|
E S E. H +E +W E S E. T H +S. +W
 
 |-----------------------|----------|--------------------|-----------|
 |--------12-------------|----------|-------12-----------|-----------|
 |-----------------------|----------|--------------------|-----------|
 |--13--------11----(11)-|-(11)-----|-13----------9--(9)-|-(9)-------|
 |--11-11------9-----(9)-|--(9)-----|-11-11-----6h7--(7)-|-(7)-------|
 |-----------------------|----------|--------------------|-----------|

|
| ~~~
| W W W W
 
 |-----------------------|----------|--------------------|-----------|
 |-----------------------|----------|--------------------|-----------|
 |-----------------------|----------|--------------------|-----------|
 |-/13-------------------|----------|--------------------|-----------|
 |-----------------------|----------|--------------------|-----------|
 |-----------------------|----------|--------------------|-----------|

PM|
E S E. H +E +W E E E Q S S S S S S
 
 |----------------------|----------|--------------------------|
 |-------12-------------|----------|--------------------------|
 |----------------------|----------|--------------------------|
 |-13--------11----(11)-|-(11)-----|-13-13---9--9-9-9-9-9-9---|
 |-11-11------9-----(9)-|--(9)-----|-11-11---7--7-7-7-7-7-7---|
 |----------------------|----------|--------------------------|

S S S S S S S S S S S S S S S S
 
 |--------------------------------------------------|
 |--------------------------------------------------|
 |--------------------------------------------------|
 |-11-11-11-11-11-11-11-11-11-11-11-11-11-11-11-11--|
 |--9--9--9--9--9--9--9--9--9--9--9--9--9--9--9--9--|
 |--------------------------------------------------|

Chorus
Gtr II
S S S S S S S S S S S S S S S S S S S S S S S S S S S S S S S S 3x
 
 ||----------------------------------|----------------------------------||
 ||o---------------------------------|---------------------------------o||
 ||----------------------------------|----------------------------------||
 ||--2-2-2-2-2-2-2-2-2-2-2-2-2-2-2-2-|-6-6-6-6-6-6-6-6-6-6-6-6-6-6-6-6--||
 ||o-2-2-2-2-2-2-2-2-2-2-2-2-2-2-2-2-|-6-6-6-6-6-6-6-6-6-6-6-6-6-6-6-6-o||
 ||--2-2-2-2-2-2-2-2-2-2-2-2-2-2-2-2-|-6-6-6-6-6-6-6-6-6-6-6-6-6-6-6-6--||

|
| Gtr III
| S S S S S S S S S S S S S S S S S S S S S S S S S S S S S S S S 3x
 
 ||----------------------------------|----------------------------------||
 ||o---------------------------------|---------------------------------o||
 ||----------------------------------|----------------------------------||
 ||--2-2-2-2-2-2-2-2-2-2-2-2-2-2-2-2-|-6-6-6-6-6-6-6-6-6-6-6-6-6-6-6-6--||
 ||o-2-2-2-2-2-2-2-2-2-2-2-2-2-2-2-2-|-6-6-6-6-6-6-6-6-6-6-6-6-6-6-6-6-o||
 ||--2-2-2-2-2-2-2-2-2-2-2-2-2-2-2-2-|-6-6-6-6-6-6-6-6-6-6-6-6-6-6-6-6--||

S S S S S S S S S S S S S S S S S S S S S S S S S S S S S S S S
 
 |---------------------------------|----------------------------------|
 |---------------------------------|----------------------------------|
 |---------------------------------|----------------------------------|
 |-4-4-4-4-4-4-4-4-4-4-4-4-4-4-4-4-|-4-4-4-4-4-4-4-4-4-4-4-4-4-4-4-4--|
 |-4-4-4-4-4-4-4-4-4-4-4-4-4-4-4-4-|-4-4-4-4-4-4-4-4-4-4-4-4-4-4-4-4--|
 |-4-4-4-4-4-4-4-4-4-4-4-4-4-4-4-4-|-4-4-4-4-4-4-4-4-4-4-4-4-4-4-4-4--|

|
| S S S S S S S S S S S S S S S S S S S S S S S S S S S S S S S S
 
 |---------------------------------|----------------------------------|
 |---------------------------------|----------------------------------|
 |---------------------------------|----------------------------------|
 |-4-4-4-4-4-4-4-4-4-4-4-4-4-4-4-4-|-4-4-4-4-4-4-4-4-4-4-4-4-4-4-4-4--|
 |-4-4-4-4-4-4-4-4-4-4-4-4-4-4-4-4-|-4-4-4-4-4-4-4-4-4-4-4-4-4-4-4-4--|
 |-4-4-4-4-4-4-4-4-4-4-4-4-4-4-4-4-|-4-4-4-4-4-4-4-4-4-4-4-4-4-4-4-4--|

Verse
Gtr I
PM| PM|
E S E. H +E +W E S E. T H +S. +W
 
 |----------------------|-------------|----------------------|--------|
 |-------12-------------|-------------|-------12-------------|--------|
 |----------------------|-------------|----------------------|--------|
 |-13--------11----(11)-|-(11)--------|-13----------9----(9)-|-(9)----|
 |-11-11------9-----(9)-|--(9)--------|-11-11-----6h7----(7)-|-(7)----|
 |----------------------|-------------|----------------------|--------|

PM|
E S E. H +E +W
 
 |----------------------|-------------|
 |-------12-------------|-------------|
 |----------------------|-------------|
 |-13--------11----(11)-|-(11)--------|
 |-11-11------9-----(9)-|--(9)--------|
 |----------------------|-------------|

PM|
E S E. T H +S. +E E E E E E E E
 
 |----------------------|-----------------------------|
 |-------12-------------|-----------------------------|
 |----------------------|-----------------------------|
 |-13----------9----(9)-|-(9)-11-11-11-11-11-11-11----|
 |-11-11-----6h7----(7)-|-(7)--9--9--9--9--9--9--9----|
 |----------------------|-----------------------------|

Gtr II
[E] [E] [E] [E] [E] [E] [E] [E] [E] [E] [E] [E] [E] [E] [E] [E]  
 
 |-------------------------|-------------------------|
 |-------------------------|-------------------------|
 |-------------------------|-------------------------|
 |-13-13-13-11-11-11-11-11-|-11-11-11-11-11-11-11-11-|
 |-11-11-11--9--9--9--9--9-|--9--9--9--9--9--9--9--9-|
 |-------------------------|-------------------------|

|
| Gtr III
| E E E E E E E E E E E E E E E E
 
 |-------------------------|-------------------------|
 |-------------------------|-------------------------|
 |-------------------------|-------------------------|
 |-13-13-13-11-11-11-11-11-|-11-11-11-11-11-11-11-11-|
 |-11-11-11--9--9--9--9--9-|--9--9--9--9--9--9--9--9-|
 |-------------------------|-------------------------|

[E] [E] [E] [E] [E] [E] [E] [E] [E] [E] [E] [E] [E] [E] [E] [E]  
 
 |--------------------|------------------|
 |--------------------|------------------|
 |--------------------|------------------|
 |-13-13-13-9-9-9-9-9-|-9-9-9-9-9-9-9-9--|
 |-11-11-11-7-7-7-7-7-|-7-7-7-7-7-7-7-7--|
 |--------------------|------------------|

|
| E E E E E E E E E E E E E E E E
 
 |--------------------|------------------|
 |--------------------|------------------|
 |--------------------|------------------|
 |-13-13-13-9-9-9-9-9-|-9-9-9-9-9-9-9-9--|
 |-11-11-11-7-7-7-7-7-|-7-7-7-7-7-7-7-7--|
 |--------------------|------------------|

[E] [E] [E] [E] [E] [E] [E] [E] [E] [E] [E] [E] [E] [E] [E] [E]  
 
 |-------------------------|-------------------------|
 |-------------------------|-------------------------|
 |-------------------------|-------------------------|
 |-13-13-13-11-11-11-11-11-|-11-11-11-11-11-11-11-11-|
 |-11-11-11--9--9--9--9--9-|--9--9--9--9--9--9--9--9-|
 |-------------------------|-------------------------|

|
| E E E E E E E E E E E E E E E E
 
 |-------------------------|-------------------------|
 |-------------------------|-------------------------|
 |-------------------------|-------------------------|
 |-13-13-13-11-11-11-11-11-|-11-11-11-11-11-11-11-11-|
 |-11-11-11--9--9--9--9--9-|--9--9--9--9--9--9--9--9-|
 |-------------------------|-------------------------|

[E] [E] [E] [E] [E] [E] [E] [E] [E] [E] [E] [E] [E] [E] [E] [E]  
 
 |-------------------|--------------------------|
 |-------------------|--------------------------|
 |-------------------|--------------------------|
 |-13-13---9-9-9-9-9-|-11-11-11-11-11-11-11-11--|
 |-11-11---7-7-7-7-7-|--9--9--9--9--9--9--9--9--|
 |-------------------|--------------------------|

|
| E E E E E E E E E E E E E E E E
 
 |-------------------|--------------------------|
 |-------------------|--------------------------|
 |-------------------|--------------------------|
 |-13-13---9-9-9-9-9-|-11-11-11-11-11-11-11-11--|
 |-11-11---7-7-7-7-7-|--9--9--9--9--9--9--9--9--|
 |-------------------|--------------------------|

Chorus
S S S S S S S S S S S S S S S S S S S S S S S S S S S S S S S S
 
 |---------------------------------|----------------------------------|
 |---------------------------------|----------------------------------|
 |---------------------------------|----------------------------------|
 |-2-2-2-2-2-2-2-2-2-2-2-2-2-2-2-2-|-6-6-6-6-6-6-6-6-6-6-6-6-6-6-6-6--|
 |-2-2-2-2-2-2-2-2-2-2-2-2-2-2-2-2-|-6-6-6-6-6-6-6-6-6-6-6-6-6-6-6-6--|
 |-2-2-2-2-2-2-2-2-2-2-2-2-2-2-2-2-|-6-6-6-6-6-6-6-6-6-6-6-6-6-6-6-6--|

|
| S S S S S S S S S S S S S S S S S S S S S S S S S S S S S S S S
 
 |---------------------------------|----------------------------------|
 |---------------------------------|----------------------------------|
 |---------------------------------|----------------------------------|
 |-2-2-2-2-2-2-2-2-2-2-2-2-2-2-2-2-|-6-6-6-6-6-6-6-6-6-6-6-6-6-6-6-6--|
 |-2-2-2-2-2-2-2-2-2-2-2-2-2-2-2-2-|-6-6-6-6-6-6-6-6-6-6-6-6-6-6-6-6--|
 |-2-2-2-2-2-2-2-2-2-2-2-2-2-2-2-2-|-6-6-6-6-6-6-6-6-6-6-6-6-6-6-6-6--|

S S S S S S S S S S S S S S S S S S S S S S S S Q Q
 
 |---------------------------------|-------------------------|
 |---------------------------------|-------------------------|
 |---------------------------------|-------------------------|
 |-2-2-2-2-2-2-2-2-2-2-2-2-2-2-2-2-|-6-6-6-6-6-6-6-6-6--4----|
 |-2-2-2-2-2-2-2-2-2-2-2-2-2-2-2-2-|-6-6-6-6-6-6-6-6-6--4----|
 |-2-2-2-2-2-2-2-2-2-2-2-2-2-2-2-2-|-6-6-6-6-6-6-6-6-6--4----|

|
| S S S S S S S S S S S S S S S S S S S S S S S S Q Q
 
 |---------------------------------|-------------------------|
 |---------------------------------|-------------------------|
 |---------------------------------|-------------------------|
 |-2-2-2-2-2-2-2-2-2-2-2-2-2-2-2-2-|-6-6-6-6-6-6-6-6-6--4----|
 |-2-2-2-2-2-2-2-2-2-2-2-2-2-2-2-2-|-6-6-6-6-6-6-6-6-6--4----|
 |-2-2-2-2-2-2-2-2-2-2-2-2-2-2-2-2-|-6-6-6-6-6-6-6-6-6--4----|

S S S S S S S S S S S S S S S S S S S S S S S S S S S S S S S S
 
 |---------------------------------|----------------------------------|
 |---------------------------------|----------------------------------|
 |---------------------------------|----------------------------------|
 |-2-2-2-2-2-2-2-2-2-2-2-2-2-2-2-2-|-6-6-6-6-6-6-6-6-6-6-6-6-6-6-6-6--|
 |-2-2-2-2-2-2-2-2-2-2-2-2-2-2-2-2-|-6-6-6-6-6-6-6-6-6-6-6-6-6-6-6-6--|
 |-2-2-2-2-2-2-2-2-2-2-2-2-2-2-2-2-|-6-6-6-6-6-6-6-6-6-6-6-6-6-6-6-6--|

|
| S S S S S S S S S S S S S S S S S S S S S S S S S S S S S S S S
 
 |---------------------------------|----------------------------------|
 |---------------------------------|----------------------------------|
 |---------------------------------|----------------------------------|
 |-2-2-2-2-2-2-2-2-2-2-2-2-2-2-2-2-|-6-6-6-6-6-6-6-6-6-6-6-6-6-6-6-6--|
 |-2-2-2-2-2-2-2-2-2-2-2-2-2-2-2-2-|-6-6-6-6-6-6-6-6-6-6-6-6-6-6-6-6--|
 |-2-2-2-2-2-2-2-2-2-2-2-2-2-2-2-2-|-6-6-6-6-6-6-6-6-6-6-6-6-6-6-6-6--|

S S S S S S S S S S S S S S S S S S S S S S S S S S S S Q
 
 |---------------------------------|------------------------------|
 |---------------------------------|------------------------------|
 |---------------------------------|------------------------------|
 |-4-4-4-4-4-4-4-4-4-4-4-4-4-4-4-4-|-4-4-4-4-4-4-4-4-4-4-4-4-6----|
 |-4-4-4-4-4-4-4-4-4-4-4-4-4-4-4-4-|-4-4-4-4-4-4-4-4-4-4-4-4-6----|
 |-4-4-4-4-4-4-4-4-4-4-4-4-4-4-4-4-|-4-4-4-4-4-4-4-4-4-4-4-4-6----|

|
| S S S S S S S S S S S S S S S S S S S S S S S S S S S S Q
 
 |---------------------------------|------------------------------|
 |---------------------------------|------------------------------|
 |---------------------------------|------------------------------|
 |-4-4-4-4-4-4-4-4-4-4-4-4-4-4-4-4-|-4-4-4-4-4-4-4-4-4-4-4-4-6----|
 |-4-4-4-4-4-4-4-4-4-4-4-4-4-4-4-4-|-4-4-4-4-4-4-4-4-4-4-4-4-6----|
 |-4-4-4-4-4-4-4-4-4-4-4-4-4-4-4-4-|-4-4-4-4-4-4-4-4-4-4-4-4-6----|

Bridge
Q S S S S S S S S S S S S S S S S S S S S S S S S Q
 
 |----------------------------|------------------------------|
 |----------------------------|------------------------------|
 |----------------------------|------------------------------|
 |-2--2-2-2-2-2-2-2-2-2-2-2-2-|-2-2-2-2-2-2-2-2-2-2-2-2-1----|
 |-2--2-2-2-2-2-2-2-2-2-2-2-2-|-2-2-2-2-2-2-2-2-2-2-2-2-1----|
 |-2--2-2-2-2-2-2-2-2-2-2-2-2-|-2-2-2-2-2-2-2-2-2-2-2-2-1----|

|
| Q S S S S S S S S S S S S S S S S S S S S S S S S Q
 
 |----------------------------|------------------------------|
 |----------------------------|------------------------------|
 |----------------------------|------------------------------|
 |-2--2-2-2-2-2-2-2-2-2-2-2-2-|-2-2-2-2-2-2-2-2-2-2-2-2-1----|
 |-2--2-2-2-2-2-2-2-2-2-2-2-2-|-2-2-2-2-2-2-2-2-2-2-2-2-1----|
 |-2--2-2-2-2-2-2-2-2-2-2-2-2-|-2-2-2-2-2-2-2-2-2-2-2-2-1----|

[4/4] Q S S S S S S S S S S S S S S S S S S S S S S S S Q
 
 |----------------------------|------------------------------|
 |----------------------------|------------------------------|
 |----------------------------|------------------------------|
 |-4--4-4-4-4-4-4-4-4-4-4-4-4-|-4-4-4-4-4-4-4-4-4-4-4-4-6----|
 |-4--4-4-4-4-4-4-4-4-4-4-4-4-|-4-4-4-4-4-4-4-4-4-4-4-4-6----|
 |-4--4-4-4-4-4-4-4-4-4-4-4-4-|-4-4-4-4-4-4-4-4-4-4-4-4-6----|

|
| Q S S S S S S S S S S S S S S S S S S S S S S S S Q
 
 |----------------------------|------------------------------|
 |----------------------------|------------------------------|
 |----------------------------|------------------------------|
 |-4--4-4-4-4-4-4-4-4-4-4-4-4-|-4-4-4-4-4-4-4-4-4-4-4-4-6----|
 |-4--4-4-4-4-4-4-4-4-4-4-4-4-|-4-4-4-4-4-4-4-4-4-4-4-4-6----|
 |-4--4-4-4-4-4-4-4-4-4-4-4-4-|-4-4-4-4-4-4-4-4-4-4-4-4-6----|

[4/4] Q S S S S S S S S S S S S S S S S S S S S S S S S S S S S
 
 |----------------------------|-----------------------------------|
 |----------------------------|-----------------------------------|
 |----------------------------|-----------------------------------|
 |-2--2-2-2-2-2-2-2-2-2-2-2-2-|-2-2-2-2-2-2-2-2-2-2-2-2-2-2-2-2---|
 |-2--2-2-2-2-2-2-2-2-2-2-2-2-|-2-2-2-2-2-2-2-2-2-2-2-2-2-2-2-2---|
 |-2--2-2-2-2-2-2-2-2-2-2-2-2-|-2-2-2-2-2-2-2-2-2-2-2-2-2-2-2-2---|

|
| Q S S S S S S S S S S S S S S S S S S S S S S S S S S S S
 
 |----------------------------|-----------------------------------|
 |----------------------------|-----------------------------------|
 |----------------------------|-----------------------------------|
 |-2--2-2-2-2-2-2-2-2-2-2-2-2-|-2-2-2-2-2-2-2-2-2-2-2-2-2-2-2-2---|
 |-2--2-2-2-2-2-2-2-2-2-2-2-2-|-2-2-2-2-2-2-2-2-2-2-2-2-2-2-2-2---|
 |-2--2-2-2-2-2-2-2-2-2-2-2-2-|-2-2-2-2-2-2-2-2-2-2-2-2-2-2-2-2---|

[2/4] S S S S E E +E S S S S S S
 
 |-------------|--------------------|
 |-------------|--------------------|
 |-------------|--------------------|
 |-6-6-6-6---4-|-(4)-4-4-4-4-4-4----|
 |-6-6-6-6---4-|-(4)-4-4-4-4-4-4----|
 |-6-6-6-6---4-|-(4)-4-4-4-4-4-4----|

|
| S S S S E E +E S S S S S S
 
 |-------------|--------------------|
 |-------------|--------------------|
 |-------------|--------------------|
 |-6-6-6-6---4-|-(4)-4-4-4-4-4-4----|
 |-6-6-6-6---4-|-(4)-4-4-4-4-4-4----|
 |-6-6-6-6---4-|-(4)-4-4-4-4-4-4----|

S S S S S S S S S S S S S S S S S S S S E E +E S S S S S S
 
 |-----------------|-----------------|-------------|-------------------|
 |-----------------|-----------------|-------------|-------------------|
 |-----------------|-----------------|-------------|-------------------|
 |-4-4-4-4-4-4-4-4-|-4-4-4-4-4-4-4-4-|-6-6-6-6---2-|-(2)-2-2-2-2-2-2---|
 |-4-4-4-4-4-4-4-4-|-4-4-4-4-4-4-4-4-|-6-6-6-6---2-|-(2)-2-2-2-2-2-2---|
 |-4-4-4-4-4-4-4-4-|-4-4-4-4-4-4-4-4-|-6-6-6-6---2-|-(2)-2-2-2-2-2-2---|

|
| S S S S S S S S S S S S S S S S S S S S E E +E S S S S S S
 
 |-----------------|-----------------|-------------|-------------------|
 |-----------------|-----------------|-------------|-------------------|
 |-----------------|-----------------|-------------|-------------------|
 |-4-4-4-4-4-4-4-4-|-4-4-4-4-4-4-4-4-|-6-6-6-6---2-|-(2)-2-2-2-2-2-2---|
 |-4-4-4-4-4-4-4-4-|-4-4-4-4-4-4-4-4-|-6-6-6-6---2-|-(2)-2-2-2-2-2-2---|
 |-4-4-4-4-4-4-4-4-|-4-4-4-4-4-4-4-4-|-6-6-6-6---2-|-(2)-2-2-2-2-2-2---|

S S S S S S S S S S S S S S S S S S S S E E +E S S S S S S
 
 |-----------------|-----------------|-------------|-------------------|
 |-----------------|-----------------|-------------|-------------------|
 |-----------------|-----------------|-4-4-4-4-----|-------------------|
 |-2-2-2-2-2-2-2-2-|-2-2-2-2-2-2-2-2-|-4-4-4-4---4-|-(4)-4-4-4-4-4-4---|
 |-2-2-2-2-2-2-2-2-|-2-2-2-2-2-2-2-2-|-2-2-2-2---4-|-(4)-4-4-4-4-4-4---|
 |-2-2-2-2-2-2-2-2-|-2-2-2-2-2-2-2-2-|-----------4-|-(4)-4-4-4-4-4-4---|

|
| S S S S S S S S S S S S S S S S S S S S E E +E S S S S S S
 
 |-----------------|-----------------|-------------|-------------------|
 |-----------------|-----------------|-------------|-------------------|
 |-----------------|-----------------|-4-4-4-4-----|-------------------|
 |-2-2-2-2-2-2-2-2-|-2-2-2-2-2-2-2-2-|-4-4-4-4---4-|-(4)-4-4-4-4-4-4---|
 |-2-2-2-2-2-2-2-2-|-2-2-2-2-2-2-2-2-|-2-2-2-2---4-|-(4)-4-4-4-4-4-4---|
 |-2-2-2-2-2-2-2-2-|-2-2-2-2-2-2-2-2-|-----------4-|-(4)-4-4-4-4-4-4---|

S S S S S S S S S S S S S S S S S S S S E E +E S S S S S S
 
 |-----------------|-----------------|-------------|-------------------|
 |-----------------|-----------------|-------------|-------------------|
 |-----------------|-----------------|-------------|-------------------|
 |-4-4-4-4-4-4-4-4-|-4-4-4-4-4-4-4-4-|-6-6-6-6---2-|-(2)-2-2-2-2-2-2---|
 |-4-4-4-4-4-4-4-4-|-4-4-4-4-4-4-4-4-|-6-6-6-6---2-|-(2)-2-2-2-2-2-2---|
 |-4-4-4-4-4-4-4-4-|-4-4-4-4-4-4-4-4-|-6-6-6-6---2-|-(2)-2-2-2-2-2-2---|

|
| S S S S S S S S S S S S S S S S S S S S E E +E S S S S S S
 
 |-----------------|-----------------|-------------|-------------------|
 |-----------------|-----------------|-------------|-------------------|
 |-----------------|-----------------|-------------|-------------------|
 |-4-4-4-4-4-4-4-4-|-4-4-4-4-4-4-4-4-|-6-6-6-6---2-|-(2)-2-2-2-2-2-2---|
 |-4-4-4-4-4-4-4-4-|-4-4-4-4-4-4-4-4-|-6-6-6-6---2-|-(2)-2-2-2-2-2-2---|
 |-4-4-4-4-4-4-4-4-|-4-4-4-4-4-4-4-4-|-6-6-6-6---2-|-(2)-2-2-2-2-2-2---|

S S S S S S S S S S S S S S S S
 
 |-----------------|--------------------|
 |-----------------|--------------------|
 |-----------------|--------------------|
 |-2-2-2-2-2-2-2-2-|-4-4-4-4-4-4-4-4----|
 |-2-2-2-2-2-2-2-2-|-4-4-4-4-4-4-4-4----|
 |-2-2-2-2-2-2-2-2-|-4-4-4-4-4-4-4-4----|

|
| S S S S S S S S S S S S S S S S
 
 |-----------------|--------------------|
 |-----------------|--------------------|
 |-----------------|--------------------|
 |-2-2-2-2-2-2-2-2-|-4-4-4-4-4-4-4-4----|
 |-2-2-2-2-2-2-2-2-|-4-4-4-4-4-4-4-4----|
 |-2-2-2-2-2-2-2-2-|-4-4-4-4-4-4-4-4----|

Pre-Chorus
[4/4] Gtr II
H. Q W
 
 |-7----------|-------|
 |-7----------|-12----|
 |-9-------9--|-11----|
 |-9-------9--|-13----|
 |-7-------7--|-11----|
 |------------|-------|

H. Q W
 
 |-7----------|-------|
 |-7----------|-12----|
 |-9--------9-|-11----|
 |-9--------9-|-13----|
 |-7--------7-|-11----|
 |------------|-------|

H. Q
 
 |--7-------------------------------------------|
 |--7-------------------------------------------|
 |--9-----------------------------------9-------|
 |--9-----------------------------------9-------|
 |--7-----------------------------------7-------|
 |----------------------------------------------|

|
| Gtr III
| S S S S S S S S S S S S S S S S
 
 |----------------------------------------------|
 |----------------------------------------------|
 |-11--11-11-11-11-11-11-11-11-11-11-11-9-9-9-9-|
 |--9---9--9--9--9--9--9--9--9--9--9--9-9-9-9-9-|
 |----------------------------------------------|
 |----------------------------------------------|

W
 
 |----------------------------------------------|
 |-12-------------------------------------------|
 |-11-------------------------------------------|
 |-13-------------------------------------------|
 |-11-------------------------------------------|
 |----------------------------------------------|

|
| S S S S S S S S S S S S S S S S
 
 |----------------------------------------------|
 |----------------------------------------------|
 |-11-11-11-11-11-11-11-11-11-11-11-11-9-9-9-9--|
 |--9--9--9--9--9--9--9--9--9--9--9--9-9-9-9-9--|
 |----------------------------------------------|
 |----------------------------------------------|

W
 
 |---------------------------------------------|
 |---------------------------------------------|
 |-11------------------------------------------|
 |-11------------------------------------------|
 |--9------------------------------------------|
 |---------------------------------------------|

|
| S S S S S S S S S S S S S S S S
 
 |---------------------------------------------|
 |---------------------------------------------|
 |-11-11-11-11-11-11-11-11-11-11-11-11-9-9-9-9-|
 |--9--9--9--9--9--9--9--9--9--9--9--9-9-9-9-9-|
 |---------------------------------------------|
 |---------------------------------------------|

H. Q
 
 |--------------------------------------------|
 |--------------------------------------------|
 |-11-----------------------------------------|
 |-11-----------------------------------------|
 |--9-----------------------------------------|
 |--------------------------------------------|

|
| S S S S S S S S S S S S Q
 
 |--------------------------------------------|
 |--------------------------------------------|
 |-11--11-11-11-11-11-11-11-11-11-11-11-------|
 |--9---9--9--9--9--9--9--9--9--9--9--9-------|
 |--------------------------------------------|
 |--------------------------------------------|

Chorus
S S S S S S S S S S S S S S S S S S S S S S S S S S S S S S S S
 
 |---------------------------------|----------------------------------|
 |---------------------------------|----------------------------------|
 |---------------------------------|----------------------------------|
 |-2-2-2-2-2-2-2-2-2-2-2-2-2-2-2-2-|-6-6-6-6-6-6-6-6-6-6-6-6-6-6-6-6--|
 |-2-2-2-2-2-2-2-2-2-2-2-2-2-2-2-2-|-6-6-6-6-6-6-6-6-6-6-6-6-6-6-6-6--|
 |-2-2-2-2-2-2-2-2-2-2-2-2-2-2-2-2-|-6-6-6-6-6-6-6-6-6-6-6-6-6-6-6-6--|

|
| S S S S S S S S S S S S S S S S S S S S S S S S S S S S S S S S
 
 |---------------------------------|----------------------------------|
 |---------------------------------|----------------------------------|
 |---------------------------------|----------------------------------|
 |-2-2-2-2-2-2-2-2-2-2-2-2-2-2-2-2-|-6-6-6-6-6-6-6-6-6-6-6-6-6-6-6-6--|
 |-2-2-2-2-2-2-2-2-2-2-2-2-2-2-2-2-|-6-6-6-6-6-6-6-6-6-6-6-6-6-6-6-6--|
 |-2-2-2-2-2-2-2-2-2-2-2-2-2-2-2-2-|-6-6-6-6-6-6-6-6-6-6-6-6-6-6-6-6--|

S S S S S S S S S S S S S S S S S S S S S S S S Q Q
 
 |---------------------------------|-------------------------|
 |---------------------------------|-------------------------|
 |---------------------------------|-------------------------|
 |-2-2-2-2-2-2-2-2-2-2-2-2-2-2-2-2-|-6-6-6-6-6-6-6-6-6--4----|
 |-2-2-2-2-2-2-2-2-2-2-2-2-2-2-2-2-|-6-6-6-6-6-6-6-6-6--4----|
 |-2-2-2-2-2-2-2-2-2-2-2-2-2-2-2-2-|-6-6-6-6-6-6-6-6-6--4----|

|
| S S S S S S S S S S S S S S S S S S S S S S S S Q Q
 
 |---------------------------------|-------------------------|
 |---------------------------------|-------------------------|
 |---------------------------------|-------------------------|
 |-2-2-2-2-2-2-2-2-2-2-2-2-2-2-2-2-|-6-6-6-6-6-6-6-6-6--4----|
 |-2-2-2-2-2-2-2-2-2-2-2-2-2-2-2-2-|-6-6-6-6-6-6-6-6-6--4----|
 |-2-2-2-2-2-2-2-2-2-2-2-2-2-2-2-2-|-6-6-6-6-6-6-6-6-6--4----|

S S S S S S S S S S S S S S S S S S S S S S S S S S S S S S S S
 
 |---------------------------------|----------------------------------|
 |---------------------------------|----------------------------------|
 |---------------------------------|----------------------------------|
 |-2-2-2-2-2-2-2-2-2-2-2-2-2-2-2-2-|-6-6-6-6-6-6-6-6-6-6-6-6-6-6-6-6--|
 |-2-2-2-2-2-2-2-2-2-2-2-2-2-2-2-2-|-6-6-6-6-6-6-6-6-6-6-6-6-6-6-6-6--|
 |-2-2-2-2-2-2-2-2-2-2-2-2-2-2-2-2-|-6-6-6-6-6-6-6-6-6-6-6-6-6-6-6-6--|

|
| S S S S S S S S S S S S S S S S S S S S S S S S S S S S S S S S
 
 |---------------------------------|----------------------------------|
 |---------------------------------|----------------------------------|
 |---------------------------------|----------------------------------|
 |-2-2-2-2-2-2-2-2-2-2-2-2-2-2-2-2-|-6-6-6-6-6-6-6-6-6-6-6-6-6-6-6-6--|
 |-2-2-2-2-2-2-2-2-2-2-2-2-2-2-2-2-|-6-6-6-6-6-6-6-6-6-6-6-6-6-6-6-6--|
 |-2-2-2-2-2-2-2-2-2-2-2-2-2-2-2-2-|-6-6-6-6-6-6-6-6-6-6-6-6-6-6-6-6--|

S S S S S S S S S S S S S S S S S S S S S S S S S S S S S S S S
 
 |---------------------------------|-------------------------x-x-x-x--|
 |---------------------------------|-------------------------x-x-x-x--|
 |---------------------------------|-------------------------x-x-x-x--|
 |-4-4-4-4-4-4-4-4-4-4-4-4-4-4-4-4-|-4-4-4-4-4-4-4-4-4-4-4-4-x-x-x-x--|
 |-4-4-4-4-4-4-4-4-4-4-4-4-4-4-4-4-|-4-4-4-4-4-4-4-4-4-4-4-4-x-x-x-x--|
 |-4-4-4-4-4-4-4-4-4-4-4-4-4-4-4-4-|-4-4-4-4-4-4-4-4-4-4-4-4-x-x-x-x--|

|
| S S S S S S S S S S S S S S S S S S S S S S S S S S S S S S S S
 
 |---------------------------------|-------------------------x-x-x-x--|
 |---------------------------------|-------------------------x-x-x-x--|
 |---------------------------------|-------------------------x-x-x-x--|
 |-4-4-4-4-4-4-4-4-4-4-4-4-4-4-4-4-|-4-4-4-4-4-4-4-4-4-4-4-4-x-x-x-x--|
 |-4-4-4-4-4-4-4-4-4-4-4-4-4-4-4-4-|-4-4-4-4-4-4-4-4-4-4-4-4-x-x-x-x--|
 |-4-4-4-4-4-4-4-4-4-4-4-4-4-4-4-4-|-4-4-4-4-4-4-4-4-4-4-4-4-x-x-x-x--|

Chorus/Outro
S S S S S S S S S S S S S S S S S S S S S S S S S S S S S S S S
 
 |---------------------------------------|------------------------------------|
 |---------------------------------------|------------------------------------|
 |---------------------------------------|------------------------------------|
 |-2---2-2-2-2---2-2---2-2-2-2-2-2-2-2-2-|-6-6-6-6-6-6-6---6-6-6-6-6-6-6-6-6--|
 |-2---2-2-2-2---2-2---2-2-2-2-2-2-2-2-2-|-6-6-6-6-6-6-6---6-6-6-6-6-6-6-6-6--|
 |-2---2-2-2-2---2-2---2-2-2-2-2-2-2-2-2-|-6-6-6-6-6-6-6---6-6-6-6-6-6-6-6-6--|

|
| S S S S S S S S S S S S S S S S S S S S S S S S S S S S S S S S
 
 |---------------------------------------|------------------------------------|
 |---------------------------------------|------------------------------------|
 |---------------------------------------|------------------------------------|
 |-2---2-2-2-2---2-2---2-2-2-2-2-2-2-2-2-|-6-6-6-6-6-6-6---6-6-6-6-6-6-6-6-6--|
 |-2---2-2-2-2---2-2---2-2-2-2-2-2-2-2-2-|-6-6-6-6-6-6-6---6-6-6-6-6-6-6-6-6--|
 |-2---2-2-2-2---2-2---2-2-2-2-2-2-2-2-2-|-6-6-6-6-6-6-6---6-6-6-6-6-6-6-6-6--|

|
| Gtr III
| ~ ~
| E S S E Q E Q Q S S Q. Q
 
 |---------------------------------------|------------------------------------|
 |-4-----4-4-4-----4---------------------|------------------------------------|
 |-6b8-------6b8---6b8-------3---4-------|-3-------3--------------------------|
 |---------------------------------------|-----------6-4b5-----------4--------|
 |---------------------------------------|------------------------------------|
 |---------------------------------------|------------------------------------|

S S S S S S S S S S S S S S S S S S S S S S S S Q Q
 
 |-----------------------------------|----------------------------------|
 |-----------------------------------|----------------------------------|
 |-----------------------------------|----------------------------------|
 |--2-2-2-2-2-2-2-2--2-2-2-2-2-2-2-2-|--6-6-6-6-6-6-6-6---6---1---------|
 |--2-2-2-2-2-2-2-2--2-2-2-2-2-2-2-2-|--6-6-6-6-6-6-6-6---6---1---------|
 |--2-2-2-2-2-2-2-2--2-2-2-2-2-2-2-2-|--6-6-6-6-6-6-6-6---6---1---------|

|
| S S S S S S S S S S S S S S S S S S S S S S S S Q Q
 
 |-----------------------------------|----------------------------------|
 |-----------------------------------|----------------------------------|
 |-----------------------------------|----------------------------------|
 |--2-2-2-2-2-2-2-2--2-2-2-2-2-2-2-2-|--6-6-6-6-6-6-6-6---6---1---------|
 |--2-2-2-2-2-2-2-2--2-2-2-2-2-2-2-2-|--6-6-6-6-6-6-6-6---6---1---------|
 |--2-2-2-2-2-2-2-2--2-2-2-2-2-2-2-2-|--6-6-6-6-6-6-6-6---6---1---------|

|
| ~~ ~~ ~~~
| Q S S S S Q S S S S Q S S S S Q S S E
 
 |-----------------------------------|----------------------------------|
 |-----------------------------------|----------------------------------|
 |-----------------------------------|----------------------------------|
 |-/6-------4-6-4-6-/8-------6-8-6-8-|-/9-------8-9-8-9-/11--11-9-11----|
 |-----------------------------------|----------------------------------|
 |-----------------------------------|----------------------------------|

S S S S S S S S S S S S S S S S S S S S S S S S S S S S S S S S
 
 |---------------------------------------|------------------------------------|
 |---------------------------------------|------------------------------------|
 |---------------------------------------|------------------------------------|
 |-2---2-2-2-2---2-2---2-2-2-2-2-2-2-2-2-|-6-6-6-6-6-6-6---6-6-6-6-6-6-6-6-6--|
 |-2---2-2-2-2---2-2---2-2-2-2-2-2-2-2-2-|-6-6-6-6-6-6-6---6-6-6-6-6-6-6-6-6--|
 |-2---2-2-2-2---2-2---2-2-2-2-2-2-2-2-2-|-6-6-6-6-6-6-6---6-6-6-6-6-6-6-6-6--|

|
| S S S S S S S S S S S S S S S S S S S S S S S S S S S S S S S S
 
 |---------------------------------------|------------------------------------|
 |---------------------------------------|------------------------------------|
 |---------------------------------------|------------------------------------|
 |-2---2-2-2-2---2-2---2-2-2-2-2-2-2-2-2-|-6-6-6-6-6-6-6---6-6-6-6-6-6-6-6-6--|
 |-2---2-2-2-2---2-2---2-2-2-2-2-2-2-2-2-|-6-6-6-6-6-6-6---6-6-6-6-6-6-6-6-6--|
 |-2---2-2-2-2---2-2---2-2-2-2-2-2-2-2-2-|-6-6-6-6-6-6-6---6-6-6-6-6-6-6-6-6--|

|
| ~ ~
| E S S E Q E Q Q S S Q. Q
 
 |---------------------------------------|------------------------------------|
 |-4-----4-4-4-----4---------------------|------------------------------------|
 |-6b8-------6b8---6b8-------3---4-------|-3-------3--------------------------|
 |---------------------------------------|-----------6-4b5-----------4--------|
 |---------------------------------------|------------------------------------|
 |---------------------------------------|------------------------------------|

S S S S S S S S S S S S S S S S S S S S S S S S Q Q
 
 |-----------------------------------|----------------------------------|
 |-----------------------------------|----------------------------------|
 |-----------------------------------|----------------------------------|
 |--4-4-4-4-4-4-4-4--4-4-4-4-4-4-4-4-|--4-4-4-4-4-4-4-4---4---6---------|
 |--4-4-4-4-4-4-4-4--4-4-4-4-4-4-4-4-|--4-4-4-4-4-4-4-4---4---6---------|
 |--4-4-4-4-4-4-4-4--4-4-4-4-4-4-4-4-|--4-4-4-4-4-4-4-4---4---6---------|

|
| S S S S S S S S S S S S S S S S S S S S S S S S Q Q
 
 |-----------------------------------|----------------------------------|
 |-----------------------------------|----------------------------------|
 |-----------------------------------|----------------------------------|
 |--4-4-4-4-4-4-4-4--4-4-4-4-4-4-4-4-|--4-4-4-4-4-4-4-4---4---6---------|
 |--4-4-4-4-4-4-4-4--4-4-4-4-4-4-4-4-|--4-4-4-4-4-4-4-4---4---6---------|
 |--4-4-4-4-4-4-4-4--4-4-4-4-4-4-4-4-|--4-4-4-4-4-4-4-4---4---6---------|

|
| ~~ ~~ ~~~
| Q S S S S Q S S S S Q S S S S Q S S E
 
 |-----------------------------------|----------------------------------|
 |-----------------------------------|----------------------------------|
 |-----------------------------------|----------------------------------|
 |-/6-------4-6-4-6-/8-------6-8-6-8-|-/9-------8-9-8-9-/11--11-9-11----|
 |-----------------------------------|----------------------------------|
 |-----------------------------------|----------------------------------|

End of song
W +W +W +W
 
 |-----------|-------------|------------|--------|
 |-----------|-------------|------------|--------|
 |-----------|-------------|------------|--------|
 |--2--------|--(2)--------|-(2)--------|-(2)----|
 |--2--------|--(2)--------|-(2)--------|-(2)----|
 |--2--------|--(2)--------|-(2)--------|-(2)----|

|
| W +W +W +W
 
 |-----------|-------------|------------|--------|
 |-----------|-------------|------------|--------|
 |-----------|-------------|------------|--------|
 |--2--------|--(2)--------|-(2)--------|-(2)----|
 |--2--------|--(2)--------|-(2)--------|-(2)----|
 |--2--------|--(2)--------|-(2)--------|-(2)----|

|
| W +W W W
 
 |-----------|-------------|------------|--------|
 |-----------|-------------|------------|--------|
 |-----------|-------------|------------|--------|
 |-13--------|-(13)--------|------------|--------|
 |-----------|-------------|------------|--------|
 |-----------|-------------|------------|--------|

Nevermind
Gtr II
S S S S S S S S S S S S S S S S
 
 ||----------------------------------------------|
 ||o---------------------------------------------|
 ||--11-11-11-11-11-11-11-11-11-11-11-11-9-9-9-9-|
 ||---9--9--9--9--9--9--9--9--9--9--9--9-9-9-9-9-|
 ||o---------------------------------------------|
 ||----------------------------------------------|

S S S S S S S S S S S S S S S S
 
 |----------------------------------------------||
 |---------------------------------------------o||
 |-11-11-11-11-11-11-11-11-11-11-11-11-9-9-9-9--||
 |--9--9--9--9--9--9--9--9--9--9--9--9-9-9-9-9--||
 |---------------------------------------------o||
 |----------------------------------------------||

Gtr II
S S S S S S S S S S S S S S S S
 
 ||----------------------------------------------|
 ||o---------------------------------------------|
 ||----------------------------------------------|
 ||---4--4--4--4--4--4--4--4--4--4--4--4-4-4-4-4-|
 ||o--2--2--2--2--2--2--2--2--2--2--2--2-2-2-2-2-|
 ||----------------------------------------------|

|
| Gtr III
| S S S S S S S S S S S S S S S S
 
 ||----------------------------------------------|
 ||o---------------------------------------------|
 ||--11-11-11-11-11-11-11-11-11-11-11-11-9-9-9-9-|
 ||---9--9--9--9--9--9--9--9--9--9--9--9-9-9-9-9-|
 ||o---------------------------------------------|
 ||----------------------------------------------|

S S S S S S S S S S S S S S S S
 
 |----------------------------------------------||
 |---------------------------------------------o||
 |----------------------------------------------||
 |--4--4--4--4--4--4--4--4--4--4--4--4-4-4-4-4--||
 |--2--2--2--2--2--2--2--2--2--2--2--2-2-2-2-2-o||
 |----------------------------------------------||

|
| S S S S S S S S S S S S S S S S
 
 |----------------------------------------------||
 |---------------------------------------------o||
 |-11-11-11-11-11-11-11-11-11-11-11-11-9-9-9-9--||
 |--9--9--9--9--9--9--9--9--9--9--9--9-9-9-9-9--||
 |---------------------------------------------o||
 |----------------------------------------------||

Now it's the end
S S S S S S S S S S S S S S S S
 
 ||----------------------------------------------|
 ||o---------------------------------------------|
 ||----------------------------------------------|
 ||---6--6--6--6--6--6--6--6--6--6--6--6-6-6-6-6-|
 ||o--6--6--6--6--6--6--6--6--6--6--6--6-6-6-6-6-|
 ||---6--6--6--6--6--6--6--6--6--6--6--6-6-6-6-6-|

|
| S S S S S S S S S S S S S S S S
 
 ||----------------------------------------------|
 ||o---------------------------------------------|
 ||--11-11-11-11-11-11-11-11-11-11-11-11-9-9-9-9-|
 ||---9--9--9--9--9--9--9--9--9--9--9--9-9-9-9-9-|
 ||o---------------------------------------------|
 ||----------------------------------------------|

S S S S S S S S S S S S S S S S
 
 |----------------------------------------------||
 |---------------------------------------------o||
 |----------------------------------------------||
 |--6--6--6--6--6--6--6--6--6--6--6--6-6-6-6-6--||
 |--6--6--6--6--6--6--6--6--6--6--6--6-6-6-6-6-o||
 |--6--6--6--6--6--6--6--6--6--6--6--6-6-6-6-6--||

|
| S S S S S S S S S S S S S S S S
 
 |----------------------------------------------||
 |---------------------------------------------o||
 |-11-11-11-11-11-11-11-11-11-11-11-11-9-9-9-9--||
 |--9--9--9--9--9--9--9--9--9--9--9--9-9-9-9-9--||
 |---------------------------------------------o||
 |----------------------------------------------||
 --------------------------------------------------------------------------------

Duration Legend
 
 ---------------
 W - whole; H - half; Q - quarter; E - 8th; S - 16th; T - 32nd; X - 64th; a - acciaccatura

+ - note tied to previous; . - note dotted; .. - note double dotted
Uncapitalized letters represent notes that are staccato (1/2 duration)
Irregular groupings are notated above the duration line
Duration letters will always appear directly above the note/fret number it represents the
duration for. Duration letters with no fret number below them represent rests. Multi-
bar rests are notated in the form Wxn, where n is the number of bars to rest for. Low
melody durations appear below the staff
Tablature Legend
 
 ----------------

h - hammer-on
p - pull-off
b - bend
pb - pre-bend
r - bend release (if no number after the r, then release immediately)
/\ - slide into or out of (from/to "nowhere")
s - legato slide
S - shift slide
- natural harmonic
(n) - artificial harmonic
n(n) - tapped harmonic
~ - vibrato
tr - trill
T - tap
TP - trem. picking
PM - palm muting
\n/ - tremolo bar dip; n = amount to dip
\n - tremolo bar down
n/ - tremolo bar up
/n\ - tremolo bar inverted dip
= - hold bend; also acts as connecting device for hammers/pulls
- volume swell (louder/softer)
x - on rhythm slash represents muted slash
o - on rhythm slash represents single note slash
Misc Legend
 
 -----------

| - bar
|| - double bar
||o - repeat start
o|| - repeat end
*| - double bar (ending)
: - bar (freetime)
$ - Segno
& - Coda
Tempo markers - = BPM(8/16=s8/s16), where s8 = swing 8ths, s16 = swing 16ths
 
 --------------------------------------------------------------------------------

** Generated using Power Tab Editor by Brad Larsen: The Official Power Tab Web Site

Important: The song above is NOT stored on the Chordie server. The original song is hosted at www.guitaretab.com. Chordie works as a search engine and provides on-the-fly formatting. Chordie does not index songs against artists'/composers' will. To remove this song please click here.

Text color:
Chord color:
Chord grids: 
Font size:    
Page size: 

E
Rate #1 of 2 versions

Login - add to songbook

SHARE PAGE  




You need to log in to post comments