Guitar Tabs, Chords and Lyrics
Server problems seems to be fixed. Chordie has been experiencing problems with songs disappearing. These issues now seems to be fixed, but still verifying the fix. If you find anything strange, please email admin@chordie.com.


Alone   Suicidal Tendencies

 
 E-------------------------------------0---------------0--------|
 B-------0-------------0-------------0---0-----------0---0------|
 G-----0-----0-------0-----0-------0-------0-------0-------0----|
 D---7-------------5-------------4-----------4---4-----------4--|
 A-5-----------5\3-----------3\2---------------2----------------|
 E--------------------------------------------------------------|

 


 Rpt 3 X


 


 

 
 E-------------------------------------0---------------0---------|
 B-------0-------------0-------------0---0-----------0---0-------|
 G-----0-----0-------0-----0-------0-------0-------0-------------|
 D---7-------------5-------------4-----------4---4---------------|
 A-5-----------5\3-----------3\2---------------2-----------------|
 E---------------------------------------------------------3--2--|
 E-----------------------------------------|
 B-----------------------------------------|
 G------------0------0---------------------|
 D-----2----2------4---4-------5-------3---|
 A---2---/3-----/5-------5---5-------3-----|
 E-0-----------------------3------\1-------| Rpt 3 X

 


 


 Guitar 1


 

 
 E[--------------------------------------------|
 B[--------------------------------------------|
 G[------------0------0------------------------|
 D[-----2----2------4---4----------------------|
 A[---2---/3-----/5-------5--------------------|
 E[-0------------------------------------------|

 


 [


 [Guitar 2 Distorted


 [ PM] [PM] 


 

 
 E[--------------------------------------------|
 B[--------------------------------------------|
 G[--------------------------------------------|
 D[--------------------------------------------|
 A[-------------------15\--5-5-5--\3--3-3--3-3-|
 E[-------------------15\--3-3-3--\1--1-1--1-1-|

 


 


 Riff A


 


 

 
 [PM] [PM] [PM] [PM] [---PM---]
 E----------------------------------------------|
 B----------------------------------------------|
 G----------------------------------------------|
 D-2------5------5/7----------------------------|
 A-2------3------3/5-----5------3------3/5\3----|
 E-0--0-0----0-0-----0-0-3--3-3\1--1-1-1/3\1-0--| Rpt 3 X
 [PM] [PM] [PM] [PM] [---PM---]
 E-------------------------------------------|
 B-------------------------------------------|
 G-------------------------------------------|
 D-2------5------5/7-------------------------|
 A-2------3------3/5-----5------3--------3-3-|
 E-0--0-0----0-0-----0-0-3--3-3\1--1-1-0-1-1-|

 


 


 Riff B


 


 

 
 [-PM-] [-PM-] [-PM-] [-PM-]
 E------------------------------------------|
 B------------------------------------------|
 G------------------------------------------|
 D------------------------------------------|
 A-5--------5--------5-3--------3--------3--|
 E-3--3-3-3-3--3-3-3-3-1--1-1-1-1--1-1-1-1--| Rpt 2 X

 


 


 Pick Scrape


 

 
 E-------------------------------------------------------------------|
 B-------------------------------------------------------------------|
 G-------------------------------------------------------------------|
 D-2-------------------------(2)-----------------\-\-----------------|
 A-2-------------------------(2)------------------\-\----------------|
 E-0-------------------------(0)-------------------\-\---------------|

 


 


 Chorus


 


 

 
 [--PM-] [-PM-] [PM] [--PM--] [----PM----]
 E---------------------------------------------------|
 B---------------------------------------------------|
 G---------------------------------------------------|
 D-2---------5-------5/7-----------------------------|
 A-2---------3-------3/5-----5---------3---------3-3-|
 E-0-0-0-0-0---0-0-0-----0-0-3-3-3-3-3\1-1-1-1-0-1-1-| Rpt 3 X
 [--PM-] [-PM-] [PM] [--PM--] [----PM----]
 E---------------------------------------------------|
 B---------------------------------------------------|
 G---------------------------------------------------|
 D-2---------5-------5/7-----------------------------|
 A-2---------3-------3/5-----5---------3---------3-3-|
 E-0-0-0-0-0---0-0-0-----0-0-3-3-3-3-3\1-1-1-1-0-1-1-|

 


 


 Verse Riff


 


 

 
 [-------------PM--------------]
 E---------------------------------------------|
 B---------------------------------------------|
 G---------------------------------------------|
 D---------------------------------9\8\7\6\5\4-|
 A-2-------------------------------7\6\5\4\3\2-|
 E-0-0-0-0-0-0-0-0-0-0-0-0-0-0-0-0--x-x-x-x-x--| Rpt 4 X

 


 


 Rpt Chorus


 Rpt Verse Riff 4 X


 


 Riff C


 


 [PM-] 


 

 
 E------------------|
 B------------------|
 G------------------|
 D-----------5---4--|
 A-2--4---5--3-0-2--|
 E-0--2-0-3---------| Rpt 4 X

 


 


 Backing for guitar solo


 


 

 
 [----PM---] [----PM---] [PM] PM PM PM
 E---------------------------------------------------|
 B---------------------------------------------------|
 G---------------------------------------------------|
 D-2-----------5--------------4------5---7---5---4/5-|
 A-0-0-0-0-0-0-3--0-0-0-0-0-0-2--0-0-3-0-5-0-3-0-2/3-|
 E---------------------------------------------------| Rpt 4 X

 


 


 Rpt Chorus


 Rpt Verse


 Rpt Riff C 4 X


 


 

 
 E-------------------------------------------------------------------|
 B-------------------------------------------------------------------|
 G-------------------------------------------------------------------|
 D-2-------------------------(2)-------------------------------------|
 A-2-------------------------(2)-------------------------------------|
 E-0-------------------------(0)-------------------------------------|

 


 


 Rpt 2nd half of intro.


 Rpt Riff A 4 X


 Rpt Riff B 2 X


 


 Ending


 


 Guitar 1


 Slow trem dive


 

 
 E[-------------------------------------------------------------------|
 B[-------------------------------------------------------------------|
 G[-------------------------------------------------------------------|
 D[-2-------------------------(2)-------------------------------------|
 A[-2-------------------------(2)-------------------------------------|
 E[-0-------------------------(0)-------------------------------------|

 


 [Guitar 2


 [ Slow trem dive


 

 
 E[--0----------------------------------------------------------------|
 B[--0----------------------------------------------------------------|
 G[-------------------------------------------------------------------|
 D[------------2p-0-0--2-2-/5-5\-2-2-0-0------------------------------|
 A[--------------------------------------2----------------------------|
 E[-------------------------------------------------------------------|


Important: The song above is NOT stored on the Chordie server. The original song is hosted at www.guitaretab.com. Chordie works as a search engine and provides on-the-fly formatting. Chordie does not index songs against artists'/composers' will. To remove this song please click here.

This song is displayed as text-only. Transposing and tuning is only available for chordpro-songs.
Rate #2 of 5 versions

Jango Player

Login - add to songbook

SHARE PAGE  




You need to log in to post comments