Guitar Tabs, Chords and Lyrics
Major upgrade!! After one year development the new version of Chordie is now online! Please give feedback.


Thanks for Nothing  Sum 41

Hi guys, this is my first tab/chords.
I am not sure that is 100% correct, but it sounds good! I hope you will like it!
INTRO(you can hear it between 00:00 and 00:10) - Strumming is: Down,Down, Down Up,
 
 e|-----------------------------------------------|
 B|-----------------------------------------------|
 G|-7-7-7-7--3-3-3-3-----------------5-5-5-5------|
 D|-7-7-7-7--3-3-3-3----3-3-3-3------5-5-5-5------|
 A|-5-5-5-5--1-1-1-1----3-3-3-3------3-3-3-3------|
 E|---------------------3-3-3-3-------------------|
 e|-----------------------------------------------|
 B|-----------------------------------------------|
 G|-7-7-7-7--3-3-3-3-----------------5------------|
 D|-7-7-7-7--3-3-3-3---3-3-3-3-------5------------|
 A|-5-5-5-5--1-1-1-1---3-3-3-3-------3------------|
 E|--------------------3-3-3-3--------------------|

Pre-Verse
(you can hear it between 0:11 and 0:20)
 
 e|-----------------------------------------------------|
 B|-----------------------------------------------------|
 G|-----------------------------------------------------|
 D|-0-2-3-3--------2-3-3-------2-3-3------5-5-3-2-------|
 A|-----------1-1------------------------------------3--|
 E|-------------------------1---------------------------| x2

Verse (from 00:21 to 00:37)
I'll [C#m]never take part in the grown[A] population
Or wa[E]ste my time with further edu[B]cation
To get[C#m] what we know, is just a bi[A]g show
Where t[E]hey want to cont[B]rol
So cha[C#m]ined and frustrate[A]d
It's [E]all so complicate[B]d
Fas[C#m]hion, no pas[A]sion surrou[E]nds me
Chorus (from 00:38 to 00:55, from 00:56 to 01:06)
All[B] I know is [C#m]I've heard this all bef[A]ore
Reality's a bore [E](is a bore)
You ask me to b[B]elieve it (never believe)
Something they pr[C#m]ovide
Can't bring myself t[A]o, do what
You want me t[E]o (want me to)
This is who we a[B]re and (who we are)
Pre-Verse
nothing's gonna change, nothing's gonna change
Verse (2) (from 01:07 to 01:23)
I [C#m] can't take part in the busi[A]ness revolution
Or ta[E]ke my chance in the real wor[B]ld confusion
D[C#m]on't blame us, who d[A]o we trust when they're so[E] dis-a-honest[B]
No[C#m] patience, this na[A]tion's obsessed[E] with exploitati[B]on
Ly[C#m]ing, de[A]nying surrou[E]nds me
Chorus (from 01:24 to 01:44)
All [B]I know is I[C#m]'ve heard this all befo[A]re
Reality's a bore [E](is a bore)
You ask me to belie[B]ve it (never believe)
Something they prov[C#m]ide
Can't bring myself t[A]o, do what
You want me t[E]o (want me to)
This is who we[B] are and (who we are)
Nothing's gonna cha[C#m]nge.
Bridge - (sorry guys i don't know the bridge) (from 01:45 to 02:11)
(what!) Don't think you can ignore us (ignore us)
Don't tell me your word is right (word is right)
Don't pick a future for us (for us)
We lack 'cause we're involved!!
Chorus (from 02:22 to 02:31)
All [B]I know is I[C#m]'ve heard this all befo[A]re
Reality's a bo[E]re (is a bore)
You ask me to bel[B]ieve it (never believe)
Something they pr[C#m]ovide
Can't bring myself t[A]o, do what
You want me t[E]o (want me to)
This is who we ar[B]e and (who we are)
Nothing's gonna ch[C#m]ange.
INTRO (from 02:31 to 02:52)
Thanks for nothing (I've heard this all before),
Thanks for nothing (reality's a bore),
Thanks for nothing (it'll never be the same),
Thanks for nothing (and nothing's gonna change)

Important: The song above is NOT stored on the Chordie server. The original song is hosted at www.guitaretab.com. Chordie works as a search engine and provides on-the-fly formatting. Chordie does not index songs against artists'/composers' will. To remove this song please click here.

Text color:
Chord color:
Chord grids: 
Font size:    
Page size: 

A B C#m E
Rate #2 of 3 versions

Login - add to songbook

SHARE PAGE  




You need to log in to post comments