Guitar Tabs, Chords and Lyrics
Server problems seems to be fixed. Chordie has been experiencing problems with songs disappearing. These issues now seems to be fixed, but still verifying the fix. If you find anything strange, please email admin@chordie.com.


Angels With Dirty Faces  Sum 41

Chuck
2004 Aquarius Records
Submitted by: paramore_fans@yahoo.com
Key: E
Tuning: Standard EADGBe
Chords used:
C#m - x46654
A - x02220
E - 022100
B - x24442
B/Eb - x698xx
[F#m] [-] [244222]  
[G#m] [-] [466444]  
Intro:
[C#m] I need this to[A] get me through
[C#m] Can't resist[G#m] don't want to
[C#m] Believe it[A] I know it's true
[C#m] Can't beat it[G#m] don't want to try
Metallic Riff:
[C#m] [E] [C#m] [E] [A] 
[G#m]  
 
 e|-------|-------|-------|-------|--------2-2-2-|--------------|
 B|-------|-------|-------|-------|--------0-0-0-|--------------|
 G|-6-6-6-|-9-9-9-|-6-6-6-|-9-9-9-|-2-2-2--------|--------8-8-8-|
 D|-6-6-6-|-9-9-9-|-6-6-6-|-9-9-9-|-2-2-2--------|-6-6-6--8-8-8-|
 A|-4-4-4-|-7-7-7-|-4-4-4-|-7-7-7-|-0-0-0--------|-6-6-6--6-6-6-|
 E|-------|-------|-------|-------|--------------|-4-4-4--------|

[E] [C#m] [E] [C#m] [A] 
[G#m]  
 
 e|-------|-------|-------|-------|--------2-2-2-|--------------|
 B|-------|-------|-------|-------|--------0-0-0-|--------------|
 G|-9-9-9-|-6-6-6-|-9-9-9-|-6-6-6-|-2-2-2--------|--------8-8-8-|
 D|-9-9-9-|-6-6-6-|-9-9-9-|-6-6-6-|-2-2-2--------|-6-6-6--8-8-8-|
 A|-7-7-7-|-4-4-4-|-7-7-7-|-4-4-4-|-0-0-0--------|-6-6-6--6-6-6-|
 E|-------|-------|-------|-------|--------------|-4-4-4--------|

A perfect hell
Verse 1:
C#m(All the way)
It's more to me
than you ever will know
Down here where
the rest of us fell
Waste away nothing
left to show
While I'm in this
E B/Eb(hold)
perfect hell
[C#m] Ob[A]se[G#m]ssion [F#m]has [B]begun
[C#m] Pos[A]sessed [G#m]by [F#m]des-[B]truction
[C#m] How [A]did [G#m]I [F#m]get [B]so low
[C#m] Be[A]lieve [G#m]me [F#m]no [B]one knows
Refrain:
[A] Sometimes I can't hold on
[B] And no one can help me
Chorus:
[C#m]Now it's got a hold of [E]me
[A]I don't think I can
[B]make it [G#m]through [E]this
[C#m]Now it's got a hold of [E]me
The [A]less I do the
[B]more it [G#m]makes [E]no sense
Post Chorus: Deryck speaks
I'm [C#m]walking pollution
who's [B/Eb]drained by delusions
[E] On the verge of des[F#m]truction
I cave in to ab[C#m]duction
Thin blood I'm [B/Eb]bleeding my
pulse won't s[E]top racing
Just as [F#m]my heart explodes
Verse 2:
[C#m] No [A]chance [G#m]that [F#m]I [B]could win
[C#m] Too [A]hard [G#m]to [F#m]not [B]give in
[C#m] I [A]just [G#m]don't [F#m]feel [B]the same
[C#m] Cause [A]I'm [G#m]the [F#m]one [B]to blame
(Repeat Refrain)
(Repeat Chorus)
Bridge:
C#m(hold)
I need this to be myself
C#m(hold)
It feels like I need some help
C#m(hold)
It's too late to save myself
C#m(hold) C#m---
Or it's just in my head
(Repeat Chorus twice)
Outro:
[C#m] [E] [C#m] [E]  
 
 e|-------|-------|-------|-------|
 B|-------|-------|-------|-------|
 G|-6-6-6-|-9-9-9-|-6-6-6-|-9-9-9-|
 D|-6-6-6-|-9-9-9-|-6-6-6-|-9-9-9-|
 A|-4-4-4-|-7-7-7-|-4-4-4-|-7-7-7-|
 E|-------|-------|-------|-------|

[C#m] [E] [C#m] [E]  
 
 e|-------|-------|-------|-------|
 B|-------|-------|-------|-------|
 G|-6-6-6-|-9-9-9-|-6-6-6-|-9-9-9-|
 D|-6-6-6-|-9-9-9-|-6-6-6-|-9-9-9-|
 A|-4-4-4-|-7-7-7-|-4-4-4-|-7-7-7-|
 E|-------|-------|-------|-------|

e|[C#m]---
B|---
G|-6-
D|-6-
A|-4-
E|---

Important: The song above is NOT stored on the Chordie server. The original song is hosted at www.guitaretab.com. Chordie works as a search engine and provides on-the-fly formatting. Chordie does not index songs against artists'/composers' will. To remove this song please click here.

Text color:
Chord color:
Chord grids: 
Font size:    
Page size: 

A B C#m E F#m G#m
Rate #1 of 6 versions

Login - add to songbook

SHARE PAGE  



You need to log in to post comments