Guitar Tabs, Chords and Lyrics
Major upgrade!! After one year development the new version of Chordie is now online! Please give feedback.


Underclass Hero  Sum 41

2007 Island/Aquarius Records
Submitted by: paramore_fans@yahoo.com
Tracklist:
01. Underclass Hero
02. Walking Disaster
03. Speak Of The Devil
04. Dear Father
05. Count Your Last Blessings
06. Ma Poubelle
07. March Of The Dogs
08. The Jester
09. With Me
10. Pull The Curtain
11. King Of Contradiction
12. Best Of Me
13. Confusion And Frustration In Modern Times
14. So Long Goodbye
15. Look At Me
Bonus Tracks:
16. No Apologies
17. This Is Goodbye
18. Take A Look At Yourself
_____________________________________
1.) Underclass Hero
Key: E
Tuning: Standard EADGBe
Chords used:
E - 022100
B - x24442
C#m - x46654
A - x02220
Intro :
[E] [B] [A] [B]  
 
 e|-------------|-------------|--------------------|-------|
 B|-------------|-------------|--------------------|-------|
 G|--------2--1-|--------2--1-|--------2--1--------|-------|
 D|-----2-------|-----2-------|-----2------------2-|-----4-| x4
 A|-------------|-2-2---------|-0-0----------0-0---|-2-2---|
 E|-0-0---------|-------------|--------------------|-------|

1,2..
Verse 1:
Well I [E]won?t be caught
living in a [B]dead end job
While [C#m]praying to my
government [A]guns and god
Now it's [E]us against them
We?re [B]here to represent
And [C#m]spit right in the
face of the es[A]tablishment
And [E]now I don't believe
(In [B]having faith in nothing!)
S[C#m]tand on my own
(Got [A]no sympa[B]thy!)
[E]Wasting the youth
(While [B]being young and useless!)
[C#m]Speak for yourself
(And [A]don't pray for me!)
Chorus:
Well Because [A]we're doing [E]fine
And we [B]don't need to be told
That [A]we're doing [E]fine
Cause we [B]won't give you control
And we [A]don't need [E]any[B]thing from you
Cause we'll [A]be just [E]fine
And we [B]won't be bought
and sold Just like you
Interlude: Repeat Intro but twice only
A call across the Underclass
Verse 2:
[E]Calling out loud
with [B]no respect
[C#m]I?m not the one
just [A]another reject
I'm the [E]voice you affect
I'll [B]lose and protect
I [C#m]saw your up against the great
America we?ll [A]rise against
And now I'm [E]desensitized
(I s[B]tate my place in nowhere!)
[C#m]Burning the flag
(Of [A]the degenera[B]tion!)
[E]Everyone sing
(The [B]Anthem of no future!)
[C#m]Down with the mass
(Cause [A]we're not liste[B]ning!)
(Repeat Chorus)
Bridge:
[E] May I have your attention please
I pledge allegiance to the
underclass as your hero at large
Bridge : E B A A-B (x4), E
Deryck Whibley's amazing lead Solo:
[A] [E] [B]  
 
 e|-----------|--------------|---------------------0---2-|
 B|-----------|--------------|---------------0-4-0---0---|
 G|-----------|--------------|-1-------------------------|
 D|-2--2--2-4-|-2-------2--4-|----4--4--2-4--------------| x2
 A|-----------|----2--2------|---------------------------|
 E|-----------|--------------|---------------------------|

[A] [E] [B]  
 
 e|-----5-----5-----|-----4-----4-----|-------------------------------|
 B|-5-5---5-5---5---|-5-5---5-5---5---|-----4-----5-----7-----4---4-5-|
 G|---------------4-|---------------4-|-4-4---4-4---4-4---4-4---4-----|
 D|-----------------|-----------------|-------------------------------|
 A|-----------------|-----------------|-------------------------------|
 E|-----------------|-----------------|-------------------------------|

[A] [E] [B] [E]  
 
 e|-----------|--------------|----------------------------|---|
 B|-----------|--------------|----------------------------|---|
 G|-----------|--------------|-1--------------13-14-13-11-|-9-|
 D|-2--2--2-4-|-2-------2--4-|----4--4--2-4----x--x--x--x-|-x-|
 A|-----------|----2--2------|----------------11-12-11--9-|-7-|
 E|-----------|--------------|----------------------------|-0-|

(Repeat Intro but only twice)
1..2..3..4
Verse 3:
[E] We?re the saints
of[B] degeneration
[A] We don?t owe anyone
an expla[B]nation
[E] Fuck elitists
[B] We don?t need this
[A]We're the elites
of disarray
(Repeat Chorus)
(Repeat Intro twice only)
______________________________________________
2.) Walking Disaster
Key: B
Tuning: Standard EADGBe
Chords used:
B - x24442
[F#] [-] [244322]  
[G#m]E - [-] [466444]022100 or 079997
C#m - x46654
Ebm - x68876
Intro: B
Verse 1: Slow beat
[B] I haven't been home for a [F#]while
I'm sure everything's the [G#m]same
Mom and Dad both in de[E]nial
An only child to take the [B]blame
Sorry, Mom, but I don't [F#]miss you
Father's no name you de[G#m]serve
I'm just a kid with no am[E]bitions
Wouldn't come home for the world
Refrain 1:
[G#m] Never know what
I've be[E]come
The king of all that's
said and [B]done
The forgotten [F#]son
[G#m]This city's buried
in de[E]feat
I walk along these
no name [B]streets
Wave goodbye to [F#]all
G#m(hold)-F#(hold)-E(hold)
As I fall
Interlude: Beat switch to fast punk!!!
 
 B--G#m--F#--E, Bass Lines: B---B-F#-G#m-E

Guitar 2:
[B] [G#m] [F#] [E]  
 
 e|--------|--------|--------|--------|
 B|--------|--------|--------|--------|
 G|---11-8-|---11-8-|-11--13-|-15--16-|
 D|-9--x-x-|-9--x-x-|--x---x-|--x---x-|
 A|-x--9-6-|-x--9-6-|--9--11-|-13--14-|
 E|-7------|-7------|--------|--------|

x2 x2
Verse 2:
[B] At the dead end I be[F#]gin
To burn the bridge
of inno[F#]cence
Satisfaction guaran[E]teed
A pill away catastrophe
[B] On a mission nowhere [F#]bound
Inhibitions under[G#m]ground
A shallow grave I
Have [E]dug all by myself
Refrain 2:
And now [E]I've been
gone for [B]so [F#]long
I [E]can't remember
[B]who was [F#]wrong
All [E]innocence
is [B]long [F#]gone
I [E]pledge allegiance to
B F#(hold)
a world of disbelief
Where I belong
Chorus:
[B] A walking[F#] disaster
[G#m] The son of[E] all bastards
[B] You regret[F#] you made me
[G#m] It's too late[E] to save me
Post chorus:
B(hold)
You regret you made me
It's too late to save me
 
 Interlude: B--G#m--F#--E

Guitar 2:
[B] [G#m] [F#] [E]  
 
 e|--------|--------|--------|--------|
 B|--------|--------|--------|--------|
 G|---11-8-|---11-8-|-11--13-|-15--16-|
 D|-9--x-x-|-9--x-x-|--x---x-|--x---x-|
 A|-x--9-6-|-x--9-6-|--9--11-|-13--14-|
 E|-7------|-7------|--------|--------|

x2 x2
Verse 3:
As [B]far as I can tell
It's just [F#]voices in my head
Am I [G#m]talking to myself?
Cause I [E]don't know
what I just said
(And she said)
[B]Far is where I fell
Maybe I'm [F#]better off dead
Am I [G#m]at the end of nowhere
Is this [E]as good as it gets?
(Repeat Refrain 2 and Chorus)
Bridge:
[G#m] To save me[F#], to save me[E], to save me...
[B] To save m[F#]e, to save me[E], to save me...
(Repeat x4)
 
 B--C#m--Ebm--E

B F# G#m E(hold)
To save me, to save me, to save me...
(Repeat Refrain 2 and chorus)
 
 Interlude: B--G#m--F#--E x2

Guitar 2:
[B] [G#m] [F#] [E]  
 
 e|--------|--------|--------|-------|
 B|--------|--------|--------|-------|
 G|---11-8-|---11-8-|---11-8-|-4-6-8-|
 D|-9--x-x-|-9--x-x-|-9--x-x-|-x-x-x-|
 A|-x--9-6-|-x--9-6-|-x--9-6-|-2-4-6-|
 E|-7------|-7------|-7------|-------|

x2 x2 x2 x2
[B] [G#m] [F#] [E]  
 
 e|--------|--------|--------|--------|
 B|--------|--------|--------|--------|
 G|---11-8-|---11-8-|-11--13-|-15--16-|
 D|-9--x-x-|-9--x-x-|--x---x-|--x---x-|
 A|-x--9-6-|-x--9-6-|--9--11-|-13--14-|
 E|-7------|-7------|--------|--------|

x2 x2
Outro: Beat switch back to slow
[B] I will be home in a [F#]while
You don't have to say a[G#m] word
I can't wait to see you s[E]mile
Wouldn't miss it for the world
(Repeat)
B(hold)
_____________________________________________
3.) Speak Of The Devil
Key: F#
Tuning: Standard EADGBe
Chords used:
[F#]C#/[-]F - [244322]143xxx
C# - x46664
Ebm - x68876
B - x24442
F#/Bb - x143xx
Bb - x13331
Intro:
[F#]Trying to find a way
Getting [C#/F]better everyday
And I [Ebm]got you now
I'm not a[C#]lone
All I [B]need in
this life is [F#/Bb]one
One [B]thing to be[C#]lieve in
 
 Interlude: F#---F#-C#/F-Ebm-C# x3

Verse 1:
[F#]I've seen many a [Ebm]face
From young and too [B]old
I've stolen their [C#]faith and
I have broken their [F#]souls
Was here before [Ebm]Christ had
forgave you your [B]sins
And paid your [C#]price and
sealed your fate within
Refrain 1:
[Ebm]Days have come [B]to an end
To[F#]day's the day
that we [C#/F]meet a[C#]gain
The [Ebm]self-inflicted
in[B]ebriation
[F#]guilt never [C#]lies
Interlude: B--C# x2
Chorus 1:
[Ebm]I've been waiting for
the [B]chance to reunite
this sick ro[F#]mance
Poison never hurt so [C#/F]good[F#]
So nice of [Ebm]you to speak of me
Your closest [B]friend and enemy
And holy [F#]savior of maso[Bb]chists
Post Chorus 1:
Well it's the [B]dead end s[F#]lave
From the [B]altar to the [F#]grave
It's the [B]last days [F#]of our [C#]lives
F# C#/F x2
In faith amen
Verse 2:
[F#]Time it's been so [Ebm]long
And now there's
nothing to [B]say
I'm trying so [C#]hard to
find the words to [F#]say
I'm tired of [Ebm]being now
I'm something I'm [B]not
I can't be[C#]lieve
and I never thought
Refrain 2:
[Ebm]Days would come [B]to an end
Well [F#]maybe someday
we'll [C#]meet again
If [Ebm]ever that day [B]never comes
It [F#]would be too [C#]soon My love
Interlude: B--C# x2
Chorus 2:
[Ebm]I've been waiting for the [B]chance
to nullify this sick ro[F#]mance
Pull the chord to deto[C#/F]nate[F#]
So sick of [Ebm]you don't speak of me
The reverend [B]saint of misery
And holy [F#]savior of maso[C#]chist
Post Chorus 2:
Well it's the [B]dead end s[F#]lave
From the [B]altar to the [F#]grave
It's the [B]last days [F#]of our [C#]lives
(Repeat)
In faith amen
Outro:
[F#]Trying to find a way
Getting [C#/F]better everyday
And I [Ebm]got you now I'm not a[C#]lone
All I [B]need in this life is [F#/Bb]one
One thing [B]to be[C#]lieve in
(Repeat)
___________________________________________
4.) Dear Father
Key: B
Tuning: Standard EADGBe
Chords used:
B - x24442
F#/Bb - x143xx
[G#m] [-] [466444]  
[F#]E -[-] [244322]022100
 
 Intro: B-F#/Bb-G#m--F#--E x2

Verse 1:
[B] Address this [F#]letter to Dear [G#m]Father
I know [E]you as complete unknown
[B] I guess it's [F#]better you don't [G#m]bother
All our [E]truths should be left alone
 
 B--F#--G#m--E

Be left alone
 
 B-F#/Bb-G#m--F#--E

Be left alone
Verse 2:
[B] I learned the [F#]things
you never [G#m]showed me
Took the [E]chances
you'd have [B]blown
And to this [F#]day
the one and [G#m]only
You re[E]main a
complete unknown
 
 B--F#--G#m--E

Complete unknown
 
 B-F#/Bb-G#m--F#--E

Complete unknown
Chorus:
[B] You're out there somewhere
[F#] I don't know if you [G#m]care at all
[E]It seems that you [B]don't
It's as if the [F#]day will never [G#m]come
So you re[E]main a complete unknown
 
 Interlude: B--F#--G#m--E--

Verse 3:
[B] So many [F#]years have been ig[G#m]nored
You've been [E]gone without a trace
[B] I'm getting used to [F#]knowing you're
[G#m] Just a [E]name without a face
 
 B--F#--G#m--E

Without a face
 
 B-F#/Bb-G#m--F#--E

Without a face
(Repeat Chorus twice)
 
 Interlude: B--F#--G#m--E-- x3

Verse 4:
[B] Address this [F#]letter to Dear [G#m]Father
I know [E]you as complete unknown
[B] I guess it's [F#]better you don't [G#m]bother
All our [E]truths should be left alone
(Repeat Chorus twice)
Outro:
B(hold)
You're out there somewhere
I don't know if you care
____________________________________________
5.) Count Your Last Blessings
Key: D
Tuning: Standard eADGBe
Chords used:
Bm - x24432
A - x02220
Em - 022000
[F#]G -[-] [244322]320033
Intro:
Piano: Until Verses
[Bm] [A] [Em] [G]  
 
 e|-14--15-17--14-|-14--15-17--14-|-14--14-17--15-|-12--14-15--14-|
 B|---------------|---------------|---------------|---------------|
 G|---------------|---------------|---------------|---------------|
 D|---------------|---------------|---------------|---------------|
 A|-14------------|-12------------|---------------|---------------|
 E|---------------|---------------|-12------------|-15------------|

[Bm]Last call for regret and defeat
To [A]finish the bottle full of empty dreams
[Em]Punch-drunk headed straight out of line
A[G]nother excuse with no alibi
[Bm]Hitchin on the road of decline
With [A]no name streets and no vital signs
I [Em]pissed away the best of me and
[G] No one can help me!
Refrain:
[Bm]  
 
 e|-------------------------------|
 B|-------------------------------|
 G|-----4-4-----------------------|
 D|---------2-2-4-4-5-5-4-4-2-2-4-|
 A|-2-2---------------------------|
 E|-------------------------------|

Chorus:
[Bm]Misery's best friend
[D]Dead beat on a dead-end
[G] A bag full of reg[F#]rets
and I'm coming clean
[Bm] The self-elect
[D]Resident reject
[G] A bad habit
Don't for[F#]get it you better
[Bm]Count your last blessings
i [F#]fell off the wagon
i'm [G]chasing six feet
And now [F#]I'm running out of time
(Repeat Intro)
Verse 2:
My [Bm]hands are tied
And nailed to the cross
I'm [A]looking for all the composure I lost
I'm [Em]petulant with a bad attitude
A [G]poster-child vision of wasted youth
I [Bm]dodged the book and found the key
I [A]can't say the same for dignity
I [Em]pissed away the best of me and
[G] No one can help me
(Repeat Refrain and chorus)
Interlude: Bm - G - D - F#
Bridge:
[Bm] My own ene[G]my
I don't hear you [D]now
Perfect trage[F#]dy
God bless us de[Bm]nial
My own enem[G]y
I don't hear you [D]now
Perfect trage[F#]dy
God bless us de[Bm]nial
(Repeat Chorus twice)
End on Bm then Repeat Piano Intro twice
________________________________________________
6.) Ma Poubelle
Note: Sometimes the piano plays the chords in different octaves so
a G or D doesn't always have the same pitch throughout the song
even though its still the same basic chord.
[G] [Em] [Am] [D] [B]  
[Cm] [A]  
 
 e---3-----0------0------2-----2-----0-----3-----5---|
 B---3-----0------1------3-----4-----1-----4-----5---|
 G---4-----0------2------2-----4-----0-----5-----6---|
 D---5-----2------2------0-----4-----2-----5-----7---|
 A---5-----2------0------------2-----3-----3-----7---|
 E---3-----0-------------------------------------5---|

[G]Tu es [Em]ma mad[Am]emoisel[D]le
[G]Tu es [Em]ma pet[Am]ite poub[D]elle
Je [G]chercherai [B]des ord[Em]ures pour [C]toi
Je [G]commencerai de[D]dans mes pantal[G]ons
[Cm]Dans votre oeil se truove un[G]e petite pleur
Ma[Cm]is je suis pas un [G]autre C[D]oeur
[Cm]Tu sais tu es ma p[G]etite fleur
Avec une [A]plotte qui est comme du [D]beure
[G]Tu es [Em]ma mad[Am]emoisel[D]le
[G]Tu es [Em]ma pet[Am]ite poub[D]elle *At the end here there actually
pla[G]ying these [B]chords[Em] [C] [is] [A]
Je chercherai des ordures pour toi as power chords
Je [G]commencerai de[D]dans mes pantal[G]ons
I saw a rough translation for this and its a really dirty song
but its funny as hell
______________________________________
7.) March Of The Dogs
Key: B
Tuning: Standard EADGBe
Chords used:
B - x24442
F#/Bb - x143xx
[G#m] [-] [466444]  
[F#]E -[-] [244322]022100
A - x02220
G - 320033
C#m - x46654
Intro:
Part 1: B(all the way)
Part 2: B-F#/Bb-G#m-E x2
Part 3: B--A-B
Deryck Speaks:
[A-B] Ladies and gentlemen
of the underclass
[A-B] The president of the
United States of [A]A-[B]merica
Is Dead[A]![B]
Verse 1:
[B] I don't [F#/Bb]believe in the poli[G#m]tics
Of chosen [F#]fools and hypo[E]crites
Who walk a [F#]line that tread so [G#m]fine
Is death or [F#]glory had in mind?
Refrain 1:
[E] And here we go a[F#]gain
it's a mass delusion
[G#m] No one knows
Who'll [F#]lead this
revolution [E]now
As tension grows
The [F#]way to a conclusion
[B] It's [F#/Bb]too late[G#m] there's [F#]no time
[E] (it's too late there's no time)
[F#] All for none none for
1, 2, 3, 4
Chorus:
[B]March of the [F#/Bb]dogs
To a be[G#m]at of disill[E]usion
[B]Sworn under G[F#/Bb]od
Breeding[G#m] panic and con[E]fusion
[B]The white flag is down
[F#]Send in the clowns
The [G#m]carnival of sins is
[E]now going to begin
Interlude: Beat swhitch from Standard 4/4 to 3/4
 
 G#m--F#--E--F#

Verse 2:
[B]It may [F#/Bb]be I'm a pessi[G#m]mist
But I say [F#]we need an exor[E]cist
The root of[F#] all evil standing [G#m]tall
Under [F#]God and above us all
Refrain 2:
[E] And here we go a[F#]gain
in desperation
[G#m] All we know is [F#]confusion
and frustration [E]now
As tension grows no
[F#]vision of salvation
[B]It's too l[F#]ate there's no t[E]ime
(it's too late there's no time)
[(F#)]All for none none for 1, 2, 3, 4
(Repeat Chorus)
Post Chorus::
[B] Hey! Hey! Hey! Hey!
A-one, two, three, four
Bridge:
[G#m] [E] [B] [F#] [F#/Bb]  
 
 e|------------|----------|------------|------------|------|
 B|------------|----------|------------|------------|------|
 G|-1----------|----------|------------|------------|------|
 D|----4--1--2-|----------|------------|------------|------| x2
 A|------------|-4--2-----|----2---2-4-|-2--1--2--1-|-2--4-|
 E|------------|--------4-|-2----------|------------|------|

[G] [F#]  
 
 e|------------|------------|
 B|-3--2--0--2-|-0-----0--2-|
 G|------------|----3-------|
 D|------------|------------| x2
 A|------------|------------|
 E|------------|------------|

[B--A-B]  
Verse 3: Deryck Speaks
And [B]now the president's dead
Because they [F#]blew off his head
No more [G#m]neck to be red
Yes to [E]heaven he fled
Was it [B]something he said
Because of [F#]who's in his bed
By [G#m]who will we be led
From whose [E]hand will we be fed
[B]All the lies by the
lying [F#]liars who said
We'll be [G#m]fine
It's O[E]K
Hey look mom no head
Outro:
[B]Bl[G#m]ah B[C#m]lah [F#]Bla[F#/G#m]h Blah...
(It's the carnival of sins,
and a one two three go!
it's alright I said go!
one two three I say go!
It's ok, it's alright)
__________________________________________
8.) The Jester
Key: D
Tuning: Standard EADGBe
Chords used:
Bm - x24432
[F#]G -[-] [244322]320033
D - xx0232
A/C# - x476xx
Em - 022000
Intro: Bm
Verse 1:
A [Bm]jester of sorts you stand
[F#]holding your courts
Over [G]minions on Capitol [D]Hill[A/C#]
In a [G]bath full of blood
I'm a[Em]lone standing still
Under [Bm]God you can [F#]fire at [Bm]will
Chorus:
[Bm]When the devil's angels[G] come
To take your life and [D]lead you
To the flamers be[F#]neath
Your headstone reads [Bm]now
Here lies the dead who[G] was
Hung by his head be[D]neath us
They're laying in their [F#]graves
Damnation free for all
Interlude: Bm
Verse 2:
A [Bm]prodigal son can't
un[F#]do what he's done
A [G]figurehead of capitol [D]crime[A/C#]
With a [G]light shining down
As you [Em]fall to your kness
To re[Bm]pent would be [F#]nothing but [Bm]lies
(Repeat Chorus)
Bridge:
[Bm] la la la [G]La la la la
[D]La la la la La [F#]la la la la
(Repeat)
Deryck's Lead Solo:
[Bm] [G] [D] [F#]  
 
 e|-------------|-------------|-------------|-------------|
 B|-------------|-------------|-------------|-------------|
 G|-------------|-2-2-0-0-----|-2-2-0-0-----|-------------|
 D|-----0-0-2-0-|---------4-0-|---------4-0-|-4-5-4-5-2-0-| x2
 A|-2-2---------|-------------|-------------|-------------|
 E|-------------|-------------|-------------|-------------|

Cone's Bass: at 2nd time simultaneous to Deryck's lead solo
[Bm] [G] [D] [F#]  
 
 G|---------|---------|---------|---------|
 D|---------|---------|-0-0-0-0-|-----4-4-|
 A|-2-2-2-2-|---------|---------|---------|
 E|---------|-3-3-3-3-|---------|-2-2-----|

Verse 3:
Bm(hold)
Deadbeat 6 feet
dead under[G]ground[F#]
Bm(hold)
An eye for an eye only
Bm(hold)
leaves us all blind
Going [G]once twice
[F#]there goes your life
(Repeat Chorus)
Outro:
Bm--G-D x3, Em(hold)
______________________________________________
9.) With Me
Dercyk wrote this song for his beautiful wife Avril Lavigne!!!
Key: E
Tuning: Standard EADGBe
Chords used:
E - 022100
B - x24442
[C#m]C - [-] [466544]x35553 or x32010
A - x02220
Intro: Until Verses
[E] [B] [C#m] [A]  
 
 e|-----------0-|----------0----|----------0-|-------------0----|
 B|------0------|-----0-------0-|-----0------|-----0----4-----0-|
 G|-1-1-----1---|-4-4----4------|-6-6----6---|-2-2----2---------|
 D|-2-2-----2---|-4-4----4------|-6-6----6---|-2-2----2---------| x2
 A|-2-2-----2---|-2-2----2------|-4-4----4---|-0-0----0---------|
 E|-0-0-----0---|---------------|------------|------------------|

Verse 1:
[E] I don't want this [B]moment
[C#m] to ever [A]end
[E] where everything's [B]nothing
with[C#m]out you[A]
[E] I'd wait here for[B]ever just to
[C#m] to see you s[A]mile
cause it's [E]true
I am [B]nothing with[C#m]out [A]you
Guitar 2: At "I'd wait here forever..."
[E] [B] [C#m] [A]  
 
 e|-12-|-11-|--9--|-7--|
 B|----|----|-----|----|
 G|----|----|-----|----|
 D|----|----|-----|----|
 A|----|----|-----|----|
 E|----|----|-----|----|

Refrain 1:
through it [C#m]all
I've made my mis[A]takes
I stumble and [E]fall
but I mean these [B]words
Chorus:
I want you to [C#m]know
with [A]everything I
won't let this [E]go
[B]these words are [C]my
heart and [C#m]soul
I'll hold [A]on to this
moment you [E]know
cause [B]I'd bleed my
[C]heart out to [C#m]show
that i [A]won't let go
Interlude: E
(Repeat Intro once)
Verse 2:
[E] thoughts read are s[B]poken
[C#m] forever and [A]now
[E] and pieces of [B]memories
fall [C#m]to the [A]ground
[E] I know that I di[B]dn't have so
[C#m] I won't let this [A]go
cause it's [E]true
I am [B]nothing with[C#m]out [A]you
Refrain 2: Fast Palm mute
all the st[C#m]reets
where I walked a[A]lone
with nowhere to [E]go
have come to an [B]end
(Repeat Chorus)
Interlude: E
Bridge:
[A] in front of your [E]eyes
it falls from the s[B]kies
when you don't k[C#m]now
what you're [B]looking to [A]find
(Repeat)
What will you [A]find
What will you [E]find
What will you [B]find
What will you [C#m]find[B]
 
 A--E--B--C#m-B

(Repeat Intro once)
Verse 3:
[E] I don't want this [B]moment
[C#m] to ever [A]end
[E] where everything's [B]nothing
with[C#m]out you[A]
(Repeat Chorus twice)
End on E
Outro: Piano
[B] [F#] [G#m] [E]  
 
 e|-14-14-11-11-|-----|-14-14-11-11-|----|
 B|-------------|-14--|-------------|-12-|
 G|-------------|-----|-------------|----|
 D|-------------|-----|-------------|----| x2
 A|-------------|-----|-------------|----|
 E|-------------|-----|-------------|----|

[B] [F#] [E]  
 
 e|-14-14-11-11-|-----|----|
 B|-------------|-14--|-12-|
 G|-------------|-----|----|
 D|-------------|-----|----|
 A|-------------|-----|----|
 E|-------------|-----|----|

___________________________________________________
10.) Pull The Curtain
Key: B
Tuning: Standard EADGBe
Chords used:
B - x24442
F#/Bb - x143xx
[G#m] [-] [466444]  
[F#]E -[-] [244322]022100
Eb/G - 365xxx
Em - 022000
C#m - x46654
Intro:
 
 Part 1: G#m--E--B--- x2, Pick slide

Part 2: F#/Bb-B--G#m--E x4
Verse 1:
(Where'd I go [B]wrong?)
Pull the curtain be[F#]gin
paranoia's wearing [G#m]thin now
[F#] It's wearing [E]thin now
(Where'd I go [B]wrong?)
Close my eyes rea[F#]lize I've
become the victi[G#m]mized now
[F#] Desensi[E]tized now
Refrain 1:
The one and only
[G#m]day has [E]come
I pay for all the
[B]bad things I've [F#]done
Part 2: F#/Bb-B--G#m--E x4
Verse 2:
(Where'd I go [B]wrong?)
Something?s wrong
because I[F#] find
the glamour in
the [G#m]dark side
[F#] In the [E]dark side
(Where'd I go [B]wrong?)
Cheap regrets
can't for[F#]get
falling victim to
the [G#m]debts still
[F#] Unpaid in [E]my mind
(Repeat Refrain 1)
Chorus:
[E] It's gonna take me[F#] you
don't know [Eb/G]tragedy
[G#m] I've been to hell and
[F#]back again to tell and
[E] Close my eyes and[F#] lay
me [Eb/G]down to sleep
[G#m] I fear the worst my bea[F#]ting
heart ticks to exp[E]lode
And my [Em]time is up so
Post Chorus: Dercyk Screams at lie
Why can't I just lie?
Bridge: b means bend
[B] [F#/Bb] [G#m]  
[E]  
 
 e|----|-------|------------14-------14----|-11-------11-------------|
 B|----|-------|---------12-------12----12-|----12-------12----12----|
 G|-16-|-16----|-16---11-------11----------|-------13-------13----13-|
 D|--x-|--x----|--x------------------------|-------------------------|
 A|-14-|-14----|-14------------------------|-------------------------|
 E|----|-------|---------------------------|-------------------------|

[F#] [Eb/G]  
 
 e|-------------14--11-|-------------14--11-|
 B|-11h12--------------|-11h12--------------|
 G|-------11h13--------|-------11h13--------|
 D|--------------------|--------------------|
 A|--------------------|--------------------|
 E|--------------------|--------------------|

[G#m] [F#] [E] [Em]  
 
 e|------|----|-------------------------|-------14-------14-----|
 B|------|----|-12-12-11-11-12-12-11-11-|----12-------12----14b-|
 G|-16---|-18-|-------------------------|-13-------13-----------|
 D|--x---|--x-|-------------------------|-----------------------|
 A|-14---|-16-|-------------------------|-----------------------|
 E|------|----|-------------------------|-----------------------|

Bridge:
[B]Living [F#/Bb]dead a[G#m]wake
the [F#]horror show be[E]gins
So pull the
[Em]curtains over me
Verse 3:
[B]Bring on the [F#/Bb]panic
The [G#m]uncontrolled and [F#]manic
It's a free-for-all kill
[E]them all every
last [F#]one of them
[Em]I don't care
(Repeat)
Refrain 2:
Suffocate the
[G#m]dreams in my [E]mind
(I can't stop believing)
Drown the thoughts
that [B]have me con[F#]fined
(Stop this heart
from bleeding)
Gutter dreams as
[G#m]black as the [E]night
(Mom and Dad disowned ya)
No one told me
[B]empathy's a [F#]lie
(Lost in paranoia)
Refrain 3:
[Eb/G]Suffocate the
[G#m]dreams in my [E]mind
(My last words I'm choking
are all my dreams broken?)
Drown the thoughts
that [B]have me con[F#]fined
(The silence is deafening
my ears won't stop ringing)
Gutter dreams as
[G#m]black as the [E]night
(My last words I'm choking
are all my dreams broken?)
No one told me
[B]empathy's a [F#]lie
(The silence is deafening
G#m(hold)
my ears won't stop ringing)
Outro: Same tune as their old song "We're All To Blame"
[G#m]Now [C#m]we're [F#]gone do [B]you
s[F#/Bb]till [G#m]feel the [C#m]same
way [F#]now? [B]Can't [F#/Bb]you [G#m]see?
I need [C#m]help[F#] to
s[B]top[F#/Bb] [G#m] me [C#m]from my[F#]self
Well [B]can't
F#/Bb G#m F# E(hold)
you help me now?
____________________________________________
11.) King Of Contradiction
This song is obviously about the band's hatred to US Former President George Bush
Key: Bb
Tuning: Standard EADGBe
Chords used:
Em - 022000
[Gm]Eb [-]- [355333]x68886
Bb - x13331
[F]D [-]- [133211]xx0232 or x57775
Cm - x35543
F/A - x032xx
G/B - x254xx or x2x003
Intro: Em(feedback)
Verse 1:
I've [Gm]dethroned the
[Eb]king of contra[D]diction
or were you just a [Gm]jester
[Eb]all along a [D]simple pawn
Don't you know you [Gm]can't
count your [Eb]tears and you
[Bb]want to write it [F/A]down [Gm]flame[Eb] [D]
Chorus 1:
You don't need to [Eb]pray for
[Bb]me cuz I'm [F]not the one to [Gm]blame
I can't [Eb]wait to [Bb]see
you [F]going down in [Gm]flames
How [Eb]could it [Bb]be know
[F]not what we've be[Gm]came
you [Eb]lost the [Bb]human [D]race
Cone's Bass Solo: Gm
 
 G|-------------------------------10-|
 D|-----------------------------8----|
 A|------------------------1-3-------|
 E|-1-3-1--1-3-1--1-3-1--1-----------|

Verse 2:
I hope you [Gm]burn like
a [Eb]cigarette in [D]ashes
as your head comes
down and [Gm]crashes
your [Eb]throat pours
blood from s[D]lashes
and I hope you [Gm]never
for[Eb]get like a
[Bb]tattoo of reg[F/A]ret
this [Gm]time[Eb] this [D]time
Chorus 1:
You don't need to [Eb]pray for
[Bb]me cuz I'm [F]not the one to [Gm]blame
I can't [Eb]wait to [Bb]see
you [F]going down in [Gm]flames
How [Eb]could it [Bb]be know
[F]not what we've be[Gm]came
you [Eb]lost the [Bb]human [G/B]race
Outro:
[Cm]You're rep[Gm]laced [Cm]now
Was [G/B]nice to know you
Bb Gm---Cm-Bb x6
Now your time is up so
Gm Gm Gm(hold)
Just drop dead
_______________________________________
12.) Best Of Me
Best Of Me Chords by Sum 41
This song that Deryck wrote is written for her beautiful wife Avril Lavigne!!!
[G] [-] [D] [-] [Em] [-] [D] [-] [C] [-] [D/F#]  
[G] it's so hard to say that[D] i'm sorry
i'll make[Em] every[D]thing alrigh[C]t[D/F#]
[G] all these things that i've done[D]
now what have i becom[Em]e?
and [D]where'd i go wron[C]g?[D/F#]
[G] i don't mean to hurt[D] just to put you firs[Em]t
i won't tell you lie[C]s (i'm [D/F3]sorry)
[G] i will stand accused[D] with my hand on my hear[Em]t
i'm just trying to say[C]...
Chorus:
I'm [D/F#]sorry[G]
it's all that i can [Em]say
you mean so much
and i'd fix [C]all that i've done
if [D]i could start aga[G]in
i'd throw it all aw[Em]ay
to the shadows of regre[C]ts
and you would [D]have the best of [G]me
Interlude: G - D - Em - C - D
Verse 2:
[G] i know that i can't take[D] back
all of the mist[Em]akes
but [D]i will tr[C]y[D/F#]
[G] although it's not eas[D]y
i know you believe m[Em]e
cause i [D]would not li[C]e[D/F#]
[G] don't believe their lie[D]s
told through jealous ey[Em]es
they don't understand[C] (i'm [D/F#]sorry)
[G] i won't break your hea[D]rt
i won't bring you do[Em]wn
but i will have to say[C]...
(Repeat Chorus)
Bridge:
[Em] [-] [C] [(G] [-] [D/F#)] 

Important: The song above is NOT stored on the Chordie server. The original song is hosted at www.guitaretab.com. Chordie works as a search engine and provides on-the-fly formatting. Chordie does not index songs against artists'/composers' will. To remove this song please click here.

Text color:
Chord color:
Chord grids: 
Font size:    
Page size: 

A A/C# Am B Bb Bm C C# C#/F C#m Cm D D/F# E Eb Eb/G Ebm Em F F# G G#m G/B Gm
Rate #2 of 6 versions

Login - add to songbook

SHARE PAGE  




You need to log in to post comments