Guitar Tabs, Chords and Lyrics
Update 25:10. 13:00. Site is back up running again. Songbooks are recovered. Woring on getting search back up..


Hollywood Hills  Sunrise Avenue

 
 --------------------------------------------------------------------------

HOLLYWOOD HILLS - Sunrise Avenue
 
 --------------------------------------------------------------------------

Transcripted by: peteihis 22-Feb-2014
Tuning: Standard
PRE-INTRO:
Damped
|C5 | x4
INTRO:
Riff 1
|:C | G |Am | G :| x2
VERSE 1:
No, this [C]is not the time or the place for broken hear[Bm]ted,
'cause this is the end of the [Am]rainbow, where no one can [Am5+]be too [Am]sad.
No, I [C]don't wanna leave but I must keep moving a[Bm]head,
'cause my life belongs to the [Am]other side, be[Am5+]hind the great ocean's [Am]waves.
CHORUS 1:
[C]Bye, bye Hollywood [C/E]Hills I'm gonna[G] miss you wherever I [G/B]go I'm gonna
Am Em F (strum once) NC
come back to walk these streets again. Bye, bye Hollywood Hills forever.
INTERLUDE:
Riff 1
|C | G |Am | G |
VERSE 2:
Thank [C]you for the morning walks on the sweet Sun[Bm]set
Am Am5+ Am(riff 2)
And for the hot night moments for the fantasy in my bed.
I take a [C]part of you with me now and you won't get it [Bm]back
Am Am5+ Am(riff 2)
and a part of me will stay here. You can keep it forever, dear.
BRIDGE 1:
|D | F NC|
Whou-oo - oh!
CHORUS 2:
[C] Bye, bye Hollywood [C/E]Hills I'm gonna[G] miss you wherever I [G/B]go I'm gonna
[Am] come back to [Em]walk this streets again. Re[F]member, that we had [G]fun together.
CHORUS 3:
[C] Bye, bye Rodeo [C/E]girls I'm gonna [G] love you wherever I [G/B]go, I'm gonna
[Am] come back so [Em]we can play together.[F] Bye, bye Hollywood [G]Hills forever.
BRIDGE 2:
[C] Long distance love doesn't [Bm]work! All the miles in between get in
[Am]your head. - No, I don't wanna go, I don't wanna go!
CHORUS 1:
Synth riff
[(C)] Bye, bye Hollywood Hills I'm gonna[(G)] miss you wherever I go I'm gonna
[(Am)] come back to [(Em)]walk these streets again.[(F)] Bye, bye ...
CHORUS 2:
[C] Bye, bye Hollywood Hills I'[C/E]m gonna mi[G]ss you wherever I go I'm gonna
[Am] come back to [Em]walk this streets again [F]Remember, that we had [G]fun together.
CHORUS 3:
[C] Bye, bye Rodeo [C/E]girls I'm gonna [G]Love you wherever I go, I'm gonna
[Am] come back so [Em]we can play together.[F] Bye, bye Hollywood [G]Hills forever.
OUTRO:
Riff 1
|C | G |Am | G |
Hollywood Hills forever,
Riff 1
|C | G |Am | G |
yeah! Hollywood Hills forever!
POST-OUTRO:
|C Csus4 Bm|Am |C Csus4 Bm|Am G |C
 
 ---------------------------------------------------------------------------

COMMENTS AND TIPS, HOW TO PLAY:
 
 ---------------------------------------------------------------------------

This arrangement combines some ideas from live @ Coke Sound Up with the
official youtube video. The live is actually played in B, but I'll pretend
it's in C.
The idea for "PRE-INTRO" comes from the live recording. Originally it's
just a low C played on synth as staccato 1/8-notes but for guitar the
damped C5 works quite nicely, when there's no synth in the band.
The "Am5+" marking is short for "Am add 5+" which is played:
EADGBe
x02211
It may be a bit of a matter of opinion if this chord really is here, but
at least somebody in the band is playing the extra note on top of the
chord. On the live the guitarist seems to make the sound on top of a 5th
fret Am-chord by tapping the 3rd string at 10th fret with his right hand.
The C/E:s G/B:s only mean that that bass changes the low note. Others
can basically ignore those.
Riff 1 (The 1st time as on the live)
[C] [G] [Am] [G]  
 
 --|----------------|----------------|----------------|----------------|----
 --|5---5---5---5---|5---5---3---3---|5---5---5---5---|5---5---6---6---|5--
 5-|--5---5---5---5-|--5---4---4---4-|--5---5---5---5-|--5---5---5---5-|--
 --|----------------|----------------|----------------|----------------|--
 --|----------------|----------------|----------------|----------------|-
 --|----------------|----------------|----------------|----------------|-

Riff 1 (Later in the song)
[C] [G] [Am] [G]  
 
 --|----------------|----------------|----------------|----------------|
 --|17--17--17--17--|17--17--15--15--|17--17--17--17--|17--17--18--18--|
 --|--17--17--17--17|--17--17--16--16|--17--17--17--17|--17--17--17----|
 --|----------------|----------------|----------------|----------------|
 --|----------------|----------------|----------------|----------------|
 --|----------------|----------------|----------------|----------------|

Riff 1 (Alternative fingering, that I have used)
[C] [G] [Am] [G]  
 
 --|12--12--12--12--|12--12--10--10--|12--12--12--12--|12--12--13--13--|
 --|--13--13--13--13|--13--13--12--12|--13--13--13--13|--13--13--13----|
 --|----------------|----------------|----------------|----------------|
 --|----------------|----------------|----------------|----------------|
 --|----------------|----------------|----------------|----------------|
 --|----------------|----------------|----------------|----------------|

Riff 2 (A bit different each dime actually... Fingering may vary)
[Am5+] [Am]  
 
 --|1-0-1-0-1-0-1-0-|1-0-1-0-1-0-1-0-|
 --|----------------|----------------|
 --|----------------|----------------|
 --|----------------|----------------|
 --|----------------|----------------|
 --|----------------|----------------|

Synth riff of Bridge 2 on guitar:
[(C)] [(Bm)]  
 
 |----------------|--------3-------|----------------|--------3--------|
 |5---3---5---3---|5---3-------3---|3-------3-------|3----------------|
 |--5---5---5---5-|--5---5---5---5-|--4-5-4---4-5-4-|--4-5-4----4-5-4-|
 |----------------|----------------|----------------|-----------------|
 |----------------|----------------|----------------|-----------------|
 |----------------|----------------|----------------|-----------------|

[(Am)] [(Em)] [(F)] [C]  
 
 |----------------|----------------|----------------|----------------|8---
 |----------------|----------------|----------------|3---5---6---8-10|----
 |5-2-4-2-5-2-4-2-|4-0-2-0-4-0-2-0-|0---2---4---5---|----------------|--
 |----------------|--------2-^-^-^-|----------------|----------------|--
 |----------------|----------------|----------------|----------------|-
 |----------------|----------------|----------------|----------------|-

The Em-measure is pretty impossible to play exactly like that by
just one guitar and the timing during F is really a bit vague...
On the live I don't hear this at all.
If you read this somewhere else than at ultimate-guitar,
please check UG for possible up dates. ;)

Important: The song above is NOT stored on the Chordie server. The original song is hosted at www.guitaretab.com. Chordie works as a search engine and provides on-the-fly formatting. Chordie does not index songs against artists'/composers' will. To remove this song please click here.

Text color:
Chord color:
Chord grids: 
Font size:    
Page size: 

Am Bm C C/E Em F G G/B
Rate #3 of 10 versions

Login - add to songbook

SHARE PAGE  




You need to log in to post comments