Guitar Tabs, Chords and Lyrics
Server problems seems to be fixed. Chordie has been experiencing problems with songs disappearing. These issues now seems to be fixed, but still verifying the fix. If you find anything strange, please email admin@chordie.com.


Lola  Superbus

Superbus - LOLA
e-mail: avrill_xx@yahoo.com
main riff that's played through the whole song:
riff qui se répète plusieurs fois durant la chanson
 
 e|----------------------------------------------------------|
 B|--7-7-7-7--7h8--7-7-7-7--7h8--5-5-5-5--5h7--3-3-3-3--3h5--|
 G|----------------------------------------------------------|
 D|----------------------------------------------------------|
 A|----------------------------------------------------------|
 E|----------------------------------------------------------|

[Bm]Allo Lola, c'e[A]st encore moi
J'ai [G]beaucoup pensé à t[F#]oi Lola
[Bm]Allo Lola ne [A]raccroche pas
[G]Ne mets pas de hola [F#]Lola ola
REFRAIN
[Bm]Allo Lola [A]Comme un garçon
[G]J'ai le coeur qui fait boum[A] et les cheveux longs
[Bm]Allo Lola [A]Comme un garçon
[G]C'est la première fois pour moi que tes[F#] yeux me font
[Bm]Boum boum boum b[D]oum boum boum boum boum [A]boum
[A]Ola Lola c'e[G]st
[Bm]Boum boum boum bo[D]um boum boum boum boum b[A]oum
[A]Lola c'est o[G]
[Bm]Allo Lola, [A]oui c'est bien moi
Je[G] n'ai pas dormi pour toi
[F#]Je n'en reviens pas
[Bm]Allo Lola ne r[A]accroche pas
[G]Lola lit dans l'eau de[F#]là Ma jolie Lola
REFRAIN
[Bm]Allo Lola [A]Comme un garçon
[G]J'ai le coeur qui fait boum[A] et les cheveux longs
[Bm]Allo Lola [A]Comme un garçon
[G]C'est la première fois pour moi que tes[F#] yeux me font
[Bm]Boum boum boum b[D]oum boum boum boum boum [A]boum
[A]Ola Lola c'e[G]st
[Bm]Boum boum boum bo[D]um boum boum boum boum b[A]oum
[A]Lola c'est o[G]
Bm D G A x2
riff:
 
 e|----------------------------|
 B|--7-------7----7------------|
 G|----7---7---7---------7-6---|
 D|------9------9---9----------|
 A|----------------------------|
 E|----------------------------|
 e|----------------------------------------|
 B|--7-------7----7------------------------|
 G|----7---7---7---------7-6--5-let ring---|
 D|------9------9---9----------------------|
 A|----------------------------------------|
 E|----------------------------------------|

[Bm]Allo Lola com[A]me un garçon [G] [F#] x2
[Bm]Boum boum boum b[D]oum boum boum boum boum [A]boum
[A]Ola Lola c'e[G]st
[Bm]Boum boum boum bo[D]um boum boum boum boum b[A]oum
[A]Lola c'est o[G]
[Bm]Boum boum boum b[D]oum boum boum boum boum [A]boum
[A]Ola Lola c'e[G]st
[Bm]Boum boum boum bo[D]um boum boum boum boum b[A]oum
[A]Lola c'est o[G]
 
 e|-----------------------------------------------------------------------|
 B|-----------------------------------------------------------------------|
 G|---11-11-11-11--11/12--11-11-11-11--11/12--9-9-9-9--9/11--7-7-7-7--7/9-|
 D|----x--x--x--x---x--x---x--x--x--x---x--x--x-x-x-x--x--x--x-x-x-x--x-x-|
 A|----9--9--9--9---9/10---9--9--9--9---9/10--7-7-7-7--7--9--5-5-5-5--5/7-|
 E|-----------------------------------------------------------------------|


Important: The song above is NOT stored on the Chordie server. The original song is hosted at www.guitaretab.com. Chordie works as a search engine and provides on-the-fly formatting. Chordie does not index songs against artists'/composers' will. To remove this song please click here.

Text color:
Chord color:
Chord grids: 
Font size:    
Page size: 

A Bm D F# G
Rate #2 of 3 versions

Jango Player

Login - add to songbook

SHARE PAGE  



You need to log in to post comments