Guitar Tabs, Chords and Lyrics
Major upgrade!! After one year development the new version of Chordie is now online! Please give feedback.


Long Gone  Syd Barrett

 
 -------------------------------------------------------------------------------

Long Gone - The Bones
 
 -------------------------------------------------------------------------------

Tabbed by: schleichi
Email: lemmyfredericksen@yahoo.de
Tuning: standard _________ _______________
|1. |2.
 
 e|--0-0--0-3-0------------------|----------|------------------------------------|
 B|-------------------0----------|----------|------------------------------------|
 G|-------------2-2--2-2-0-0--0--|0-2-2-2-0-|------------------------------------|
 D|----------------------------2-|----------|--5--2--5--2------------------------|
 A|------------------------------|----------|--5--2--5--2------------------------|
 E|------------------------------|----------|--3--0--3--0------------------------|

E A G A x2
 
 e|--0-0--0-3-0---------------------------|--------------------------------------|
 B|------------------0--------------------|--------------------------------------|
 G|------------2-2--2-2-0-0--0--0-2-2-2-0-|--------------------------------------|
 D|---------------------------2-----------|--------------------------------------|
 A|---------------------------------------|--------------------------------------|
 E|---------------------------------------|--------------------------------------|

[E]Fuck you what ya t[A]rying to do I g[G]ave you all my love and I s[A]till wait for you
[E]Face down baby[A], look out I'm gi[G]ving you a ticket to my u[A]nderground
[A]Going down[G] cause it's home to [B]me
Chorus:
[B] [E] [D] [A] [E] [G] [E] [G] [E] 

Important: The song above is NOT stored on the Chordie server. The original song is hosted at www.guitaretab.com. Chordie works as a search engine and provides on-the-fly formatting. Chordie does not index songs against artists'/composers' will. To remove this song please click here.

Text color:
Chord color:
Chord grids: 
Font size:    
Page size: 

A B D E G
Rate #1 of 2 versions

Jango Player

Login - add to songbook

SHARE PAGE  



You need to log in to post comments