Guitar Tabs, Chords and Lyrics
Server problems seems to be fixed. Chordie has been experiencing problems with songs disappearing. These issues now seems to be fixed, but still verifying the fix. If you find anything strange, please email admin@chordie.com.


Fallen  Symphony X

As recorded by Symphony X
(From the 2001 Album V (THE NEW MYTHOLOGY))
Transcribed by Chris Taylor
Music by Symphony X
Gtr I (D G C F A D) - 'Michael Romeo (Guitar)'
Keyboard intro
Q=140
17/8
Gtr I
W W
 
 |-------------------|------|
 |-------------------|------|
 |-------------------|------|
 |-------------------|------|
 |-------------------|------|
 |-------------------|------|

W W
 
 |-------------------|------|
 |-------------------|------|
 |-------------------|------|
 |-------------------|------|
 |-------------------|------|
 |-------------------|------|

W W
 
 |-------------------|------|
 |-------------------|------|
 |-------------------|------|
 |-------------------|------|
 |-------------------|------|
 |-------------------|------|

Intro
 
 PM-------------------------|

W E q E q E q E q E q E e
 
 |-------------------|-------------------------------|
 |-------------------|-------------------------------|
 |-------------------|-------------------------------|
 |-------------------|-------------------------------|
 |-------------------|-------------------------------|
 |-------------------|-2-2--2-2--2-2--2-2--2-2--2-2--|

[E5] 
[4/4]  
 
 PM----------------------------------------| PM--------|

+E E q E q E q E q E E E E E q E q E E +E E E E E E E E
 
 |---------------------------------|---------------|---------------------|
 |---------------------------------|---------------|---------------------|
 |---------------------------------|---------------|---------------------|
 |---------------------------------|---------------|---------------------|
 |---------------------------------|-4-4--4-4--4-4-|-(4)-------2-1-------|
 |-(2)-2-2--2-2--2-2--2-2--2-0-2-3-|-2-2--2-2--2-2-|-(2)-0-2-3-----0-[3]-|

[D5] [F5] [E5D#5] [C5] [B5A#5]  
 
 PM-----------------------------|

+E E q E q E E E E E E E E E Q. E +E E Q +E E +E E Q Q
 
 |-----------------|-----------------|-----------------|--------------------|
 |-----------------|-----------------|-----------------|--------------------|
 |-----------------|-----------------|-----------------|-----2-(2)----------|
 |-----------------|-----------------|-----------------|-----0-(0)-6-5------|
 |-----4-4--4-4--4-|-4-------2-1-----|-2----5-(5)-4-3--|-(3)-------4-3------|
 |-(3)-2-2--2-2--2-|-2-0-2-3-----3-2-|-0----3-(3)-2-1--|-(1)------------[3]-|

+E [E5]E q E q E E S S S S S S S S S S S E.
 
 |-----------------|----------------------------|
 |-----------------|----------------------------|
 |-----------------|----------------------------|
 |-----------------|---------------1-2----------|
 |-----4-4--4-4--4-|-4-------1-2-3-----3-2-1----|
 |-(3)-2-2--2-2--2-|-2-0-2-3-----------------3--|

[E5]E q E q E E +E E E E E E E E
 
 |---------------|----------------------|
 |---------------|----------------------|
 |---------------|----------------------|
 |---------------|----------------------|
 |-4-4--4-4--4-4-|-(4)-------2-1--------|
 |-2-2--2-2--2-2-|-(2)-0-2-3-----0-[3]--|

[E5] [D5] [F5] [E5D#5] [C5] [B5A#5]  
 
 PM--------------------------|

+E E q E q E E E E E E E E E Q. E +E E Q +E E +E E Q Q
 
 |-----------------|-----------------|-----------------|--------------------|
 |-----------------|-----------------|-----------------|--------------------|
 |-----------------|-----------------|-----------------|-----2-(2)----------|
 |-----------------|-----------------|-----------------|-----0-(0)-6-5------|
 |-----4-4--4-4--4-|-4-------2-1-----|-2----5-(5)-4-3--|-(3)-------4-3------|
 |-(3)-2-2--2-2--2-|-2-0-2-3-----3-2-|-0----3-(3)-2-1--|-(1)------------[3]-|

[E5]  
 
 PM------------------------------------|

+E E q E q E E S S S S S S S S S S S E. E S S S S S S S S S S S S S S
 
 |-----------------|----------------------------|-----------------------------2-|
 |-----------------|----------------------------|---------------4-5-------4-5---|
 |-----------------|----------------------------|---------2-4-5-----5-4-5-------|
 |-----------------|---------------1-2----------|---2-4-5-----------------------|
 |-----4-4--4-4--4-|-4-------1-2-3-----3-2-1----|-------------------------------|
 |-(3)-2-2--2-2--2-|-2-0-2-3-----------------3--|-2-----------------------------|

Verse
T T T T T
S S S S S S S S S S S S Q Q S E q S S e.
 
 |-7p2-8p2-5p2-7p2h3-2-5p2-2--||------------------|
 |----------------------------||------------------|
 |----------------------------||------------------|
 |----------------------------||------------------|
 |----------------------------||-4--2-5-4--5-2-4--|
 |----------------------------||------------------|

+Q S S S S E E Q Q S E q E e.
 
 |---------------------|----------------|
 |---------------------|----------------|
 |---------------------|----------------|
 |---------------------|----------------|
 |-(4)--5-4-2-2-4-4-5--|-4--2-5-4--2-4--|
 |---------------------|----------------|

+E Q Q E S S S S E. S E q. S S E +Q S S S S E E Q
 
 |---------------------|-------------------|---------------------|
 |---------------------|-------------------|---------------------|
 |---------------------|-------------------|---------------------|
 |-----0-------------0-|------0------0-----|---------------------|
 |-(4)----4--2---0-2---|-4--2---4------2-4-|-(4)--5-4-2-2-4-4-5--|
 |-------------2-------|-------------------|---------------------|

q S E q E. E E [G5]E E [F#5]E E [F5]E E E E. S E q. S S E
 
 |----------------|-----------------|-------------------|
 |----------------|-----------------|-------------------|
 |----------------|-----------------|-------------------|
 |------0---------|-----------------|------0------0-----|
 |-4--2---4--2--4-|-4-7-7-6-6-5-5---|-4--2---4------2-4-|
 |----------------|---5-5-4-4-3-3-2-|-------------------|

+Q S S S S E E Q E. S E Q Q E
 
 |---------------------|----------------|
 |---------------------|----------------|
 |---------------------|----------------|
 |------0-----------0--|------0---------|
 |-(4)----4-2-2-4-4----|-4--2---4--2--4-|
 |---------------------|----------------|

+E Q Q E S S S S E. S E Q. S S E +Q S S S S E E Q
 
 |---------------------|-------------------|---------------------|
 |---------------------|-------------------|---------------------|
 |---------------------|-------------------|---------------------|
 |-----0-------------0-|------0------0-----|------0-----------0--|
 |-(4)----4--2---0-2---|-4--2---4------2-4-|-(4)----4-2-2-4-4----|
 |-------------2-------|-------------------|---------------------|

Chorus
E. S E Q Q E E [G5]E E [F#5]E E [F5]E E E [D5]E. [C#5]S +E [A#5]E S S S S [A#5A5]E. S
 
 |----------------|-----------------|--------------------------|
 |----------------|-----------------|--------------------------|
 |----------------|-----------------|-4--3-(3)-----------------|
 |------0---------|-----------------|-2--1-(1)-5---------5--4--|
 |-4--2---4--2--4-|-4-7-7-6-6-5-5---|----------3---------3--2--|
 |----------------|---5-5-4-4-3-3-2-|------------0-0-0-0-------|

+E [G#5]E S S S S [F5E5]S S S S [F5E5]S S S S
 
 |-------------------------------|
 |-------------------------------|
 |-------------------------------|
 |-(4)-3-------------------------|
 |-(2)-1---------5-4-----5-4-----|
 |-------0-0-0-0-3-2-0-0-3-2-0-0-|

[D5]E. [C#5]S +E [A#5]E S S S S [A#5A5]E. S +E [G#5]E S S S S S S S S [A#5]Q
 
 |-------------------------|---------------------------|
 |-------------------------|---------------------------|
 |-4--3-(3)----------------|-----------------------5---|
 |-2--1-(1)-5---------5--4-|-(4)-3-----------------5---|
 |----------3---------3--2-|-(2)-1-----------------3---|
 |------------0-0-0-0------|-------0-0-0-0-3-2-0-0-----|

[D5]E. [C#5]S +E [A#5]E S S S S [A#5A5]E. S +E [G#5]E S S S S [F5E5]S S S S [F5E5]S S S S [A#5]W
 
 |-------------------------|-------------------------------|------|
 |-------------------------|-------------------------------|------|
 |-4--3-(3)----------------|-------------------------------|-5----|
 |-2--1-(1)-5---------5--4-|-(4)-3-------------------------|-5----|
 |----------3---------3--2-|-(2)-1---------5-4-----5-4-----|-3----|
 |------------0-0-0-0------|-------0-0-0-0-3-2-0-0-3-2-0-0-|------|

Pre-Verse
[F5] 9/8
E S S S S S S S S S S Q E q E q E e +E E E E E E E E E
 
 |--------------------------|---------------|---------------------|
 |---------------1-4---1----|---------------|---------------------|
 |-------------2-----2------|---------------|---------------------|
 |---------1-4-----------1--|---------------|---------------------|
 |-0---0-3------------------|-5-5--5-5--5-5-|-(5)-------3-2-------|
 |---2----------------------|-3-3--3-3--3-3-|-(3)-1-3-4-----1-3-4-|

Verse
[F5]  
[4/4] E q E q E e +E E E E E E E E E. S E Q. S S E
 
 |---------------|-------------------|-------------------|
 |---------------|-------------------|-------------------|
 |---------------|-------------------|-------------------|
 |---------------|-------------------|-------------------|
 |-5-5--5-5--5-5-|-(5)-------3-2-----|-2--0-3-2----3-0-2-|
 |-3-3--3-3--3-3-|-(3)-1-3-4-----1-4-|-------------------|

+Q S S S S E E Q E. S E Q Q E
 
 |---------------------|----------------|
 |---------------------|----------------|
 |---------------------|----------------|
 |---------------------|----------------|
 |-(2)--3-2-0-0-2-2-3--|-2--0-3-2--0--2-|
 |---------------------|----------------|

+E Q Q E S S S S E. S E Q. S S E +Q S S S S E E Q
 
 |---------------------|-------------------|---------------------|
 |---------------------|-------------------|---------------------|
 |---------------------|-------------------|---------------------|
 |---------------------|-------------------|---------------------|
 |-(2)-3--2--0-----0-3-|-2--0-3-2----3-0-2-|-(2)--3-2-0-0-2-2-3--|
 |-------------0-3-----|-------------------|---------------------|

E. S E Q Q E E [F5]E E [E5]E E [D#5]E E E E. S E Q. S S E
 
 |----------------|-----------------|-------------------|
 |----------------|-----------------|-------------------|
 |----------------|-----------------|-------------------|
 |----------------|-----------------|-------------------|
 |-2--0-3-2--0--2-|-2-5-5-4-4-3-3---|-2--0-3-2----3-0-2-|
 |----------------|---3-3-2-2-1-1-0-|-------------------|

+Q S S S S E E Q Q S E Q E. E
 
 |---------------------|----------------|
 |---------------------|----------------|
 |---------------------|----------------|
 |---------------------|----------------|
 |-(2)--3-2-0-0-2-2-3--|-2--0-3-2--0--2-|
 |---------------------|----------------|

+E Q Q E S S S S E. S E Q. S S E +Q S S S S E E Q
 
 |---------------------|-------------------|---------------------|
 |---------------------|-------------------|---------------------|
 |---------------------|-------------------|---------------------|
 |---------------------|-------------------|---------------------|
 |-(2)-3--2--0-----0-3-|-2--0-3-2----3-0-2-|-(2)--3-2-0-0-2-2-3--|
 |-------------0-3-----|-------------------|---------------------|

Chorus
Q S S Q Q E E [F5]E E [E5]E E [G#5]E E E [D5]E. [C#5]S +E [A#5]E S S S S [A#5A5]E. S
 
 |----------------|-----------------|-------------------------|
 |----------------|-----------------|-------------------------|
 |----------------|-----------------|-4--3-(3)----------------|
 |----------------|-----------------|-2--1-(1)-5---------5--4-|
 |-2--0-3-2--0--2-|-2-5-5-4-4-3-3---|----------3---------3--2-|
 |----------------|---3-3-2-2-1-1-0-|------------0-0-0-0------|

+E [G#5]E S S S S [F5E5]S S S S [F5E5]S S S S
 
 |-------------------------------|
 |-------------------------------|
 |-------------------------------|
 |-(4)-3-------------------------|
 |-(2)-1---------5-4-----5-4-----|
 |-------0-0-0-0-3-2-0-0-3-2-0-0-|

[D5]E. [C#5]S +E [A#5]E S S S S [A#5A5]E. S +E [G#5]E S S S S S S S S [A#5]Q
 
 |-------------------------|---------------------------|
 |-------------------------|---------------------------|
 |-4--3-(3)----------------|-----------------------5---|
 |-2--1-(1)-5---------5--4-|-(4)-3-----------------5---|
 |----------3---------3--2-|-(2)-1-----------------3---|
 |------------0-0-0-0------|-------0-0-0-0-3-2-0-0-----|

[D5]E. [C#5]S +E [A#5]E S S S S [A#5A5]E. S +E [G#5]E S S S S [F5E5]S S S S [F5E5]S S S S [A#5]W
 
 |-------------------------|-------------------------------|------|
 |-------------------------|-------------------------------|------|
 |-4--3-(3)----------------|-------------------------------|-5----|
 |-2--1-(1)-5---------5--4-|-(4)-3-------------------------|-5----|
 |----------3---------3--2-|-(2)-1---------5-3-----5-3-----|-3----|
 |------------0-0-0-0------|-------0-0-0-0-3-2-0-0-3-2-0-0-|------|

E S S S S S S S S S S Q [D5]E. [C#5]S +E [A#5]E S S S S [A#5A5]E. S
 
 |--------------------------|-------------------------|
 |---------------1-4---1----|-------------------------|
 |-------------2-----2------|-4--3-(3)----------------|
 |---------1-4-----------1--|-2--1-(1)-5---------5--4-|
 |-0---0-3------------------|----------3---------3--2-|
 |---2----------------------|------------0-0-0-0------|

+E [G#5]E S S S S [F5E5]S S S S [F5E5]S S S S
 
 |-------------------------------|
 |-------------------------------|
 |-------------------------------|
 |-(4)-3-------------------------|
 |-(2)-1---------5-4-----5-4-----|
 |-------0-0-0-0-3-2-0-0-3-2-0-0-|

[D5]E. [C#5]S +E [A#5]E S S S S [A#5A5]E. S
 
 |-------------------------|
 |-------------------------|
 |-4--3-(3)----------------|
 |-2--1-(1)-5---------5--4-|
 |----------3---------3--2-|
 |------------0-0-0-0------|

+E [G#5]E S S S S S S S S [A#5]Q [D5]E. [C#5]S +E [A5]E S S S S [A#5A5]E. S
 
 |--------------------------|--------------------------|
 |--------------------------|--------------------------|
 |-----------------------5--|-4--3-(3)-----------------|
 |-(4)-3-----------------5--|-2--1-(1)-5---------5--4--|
 |-(2)-1-----------------3--|----------3---------3--2--|
 |-------0-0-0-0-3-2-0-0----|------------0-0-0-0-------|

+E [C#5]E S S S S [F5E5]S S S S [F5E5]S S S S [A#5]W [G5]H [A5]H
 
 |-------------------------------|----------|-----------|
 |-------------------------------|----------|-----------|
 |-------------------------------|-5--------|-----------|
 |-(4)-3-------------------------|-5--------|-2----4----|
 |-(2)-1---------5-3-----5-3-----|-3--------|-0----2----|
 |-------0-0-0-0-3-2-0-0-3-2-0-0-|----------|-----------|

Bridge
[F#sus4]H H E S S S S E +E S S S S S S +E S S S S E +S S S S S S S S
 
 |-----------|-----------------------------|-----------------------------------|
 |-----------|-----------------------------|-----------------------------------|
 |-----------|-2-------------------------2-|-(2)-------------------------------|
 |-4----3----|---1---1-2-1-(1)-----2-1-----|-----1---1-2-1-(1)-------2-1---1---|
 |-4---------|-----4-----------1-4-----4---|-------4-------------1-4-----4-----|
 |-----------|-----------------------------|-------------------4---------------|

E S S S S E +E S S S S S S
 
 |-----------------------------|
 |-----------------------------|
 |-2-------------------------2-|
 |---1---1-2-1-(1)-----2-1-----|
 |-----4-----------1-4-----4---|
 |-----------------------------|

+E S S S S E +S S S S S S S S [E5]E q E q E e
 
 |---------------------------------||----------------|
 |---------------------------------||----------------|
 |-(2)-----------------------------||----------------|
 |-----1---1-2-1-(1)-------2-1-----||----------------|
 |-------4-------------1-4-----4-6-||-4-4--4-4--4-4--|
 |-------------------4-------------||-2-2--2-2--2-2--|

+E E E E E E E E +E [E5]E q E q E E S S S S S S S S S S S E.
 
 |---------------------|-----------------|-----------------------------||
 |---------------------|-----------------|-----------------------------||
 |---------------------|-----------------|-----------------------------||
 |---------------------|-----------------|---------------1-2-----------||
 |-(4)-------2-1-------|-----4-4--4-4--4-|-4-------1-2-3-----3-2-1-----||
 |-(2)-0-2-3-----0-[3]-|-(3)-2-2--2-2--2-|-2-0-2-3-----------------3---||

E S S S S E +E S S S S S S +E S S S S E +S S S S S S S S
 
 |-----------------------------|----------------------------------|
 |-----------------------------|----------------------------------|
 |-----------------------------|----------------------------------|
 |-5-------------------0-----5-|-(5)---------------------0--------|
 |---4-2-4-5-4-(4)---2---4-2---|-----4-2-4-5-4-(4)-----2---4-2-4--|
 |-----------------4-----------|-------------------2-4------------|

E S S S S E +E S S S S S S
 
 |-----------------------------|
 |-----------------------------|
 |---------------------------0-|
 |-5-------------------0-------|
 |---4-2-4-5-4-(4)---2---4-2---|
 |-----------------4-----------|

+E S S S S E +S S S S S S S S [D5]E q E q E e
 
 |---------------------------------||----------------|
 |---------------------------------||----------------|
 |-(0)-----------------------------||----------------|
 |-------------------------0-------||----------------|
 |-----4-2-4-5-4-(4)-----2---4-2-4-||-2-2--2-2--2-2--|
 |-------------------2-4-----------||-0-0--0-0--0-0--|

+E E E E E E E E +E [D5]E q E q E
 
 |-------------------|-----------------|
 |-------------------|-----------------|
 |-----------2-1-----|-----------------|
 |-----0-2-3-----0-3-|-(3)-------------|
 |-(2)---------------|-----2-2--2-2--2-|
 |-(0)---------------|-----0-0--0-0--0-|

E S S S S S S S S S S S E. +E [D#5]Q Q Q E
 
 |----------------------------|-----------------|
 |---------------2-3----------|-----------------|
 |---------1-2-3-----3-2-1----|-----5--5--5--5--|
 |---0-2-3-----------------3--|-(3)-3--3--3--3--|
 |-2--------------------------|-----------------|
 |-0--------------------------|-----------------|

Interlude
[E5]W +W S S S S S S S S S S S S S S S S
 
 |----------|------------||-----------------------------------------------|
 |----------|------------||---------10-12-13-12-10-8-10-12-10-12-13-12-10-|
 |----------|------------||-9-11-12---------------------------------------|
 |----------|------------||-----------------------------------------------|
 |-2--------|-(2)--------||-----------------------------------------------|
 |-0--------|-(0)--------||-----------------------------------------------|

S S S S S S S S S S S S S S S S
 
 |---------------------------------------------|
 |-12-10-8-10-12-10---------------10-----------|
 |------------------12-11-9-11-12----12-11-9-8-|
 |---------------------------------------------|
 |---------------------------------------------|
 |---------------------------------------------|

S S S S S S S S S S S S S S S S
 
 |------------------------------------------------|
 |---------10-12-10-12----10-12-14----12-10-12----|
 |-9-11-12-------------12----------14----------12-|
 |------------------------------------------------|
 |------------------------------------------------|
 |------------------------------------------------|

S S S S S S S S S S S S S S S S
 
 |------------------------------------------|
 |-10-8-7-8---7-8-10-12-14-12-10-8-10-12-14-|
 |----------9-------------------------------|
 |------------------------------------------|
 |------------------------------------------|
 |------------------------------------------|

S S S S S S S S S S S S S S S S
 
 |------------------------------------------|
 |-12-14-12----10-8-7-8--------7-8-10-12-10-|
 |----------12-------------8-9--------------|
 |----------------------10------------------|
 |------------------------------------------|
 |------------------------------------------|

S S S S S S S S S S S S S S S S S S S S S S S S S S S S S S S S
 
 |------------------------------------|---------------------------------------|
 |-8-7-5-7-8-7-8-7--------------------|-8-10-12-13-12-10-8-7-----------7-8-10-|
 |-----------------------------8-9-11-|----------------------9-8-9-8-9--------|
 |-----------------10-9-7-9-10--------|---------------------------------------|
 |------------------------------------|---------------------------------------|
 |------------------------------------|---------------------------------------|

S S S S S S S S S S S S S S S S
 
 |----------------------------------------|
 |-12-10-8-7-----------7-8-10-12----10----|
 |-----------9-8-9-8-9-----------12----11-|
 |----------------------------------------|
 |----------------------------------------|
 |----------------------------------------|

S S S S S S S S S S S S S S S S
 
 |------------------------------------------------||
 |------------10-12-10-12-13-12-10-12-10----13-12-||
 |-12-9-11-12----------------------------12-------||
 |------------------------------------------------||
 |------------------------------------------------||
 |------------------------------------------------||

[5/4] S S S S S S S S S S S S S S S S S S S S
 
 |------------------------------------------------------------|
 |----12-10-8-13-12-10-12-10----13-12-10----------------------|
 |-14------------------------11----------12-11-12-11----------|
 |---------------------------------------------------14-13-14-|
 |------------------------------------------------------------|
 |------------------------------------------------------------|

[4/4] S S S S S S S S S S S S S S S S
 
 |-12-11----------11-12-14-15-11-12-14--------------|
 |-------13-12-13----------------------10-12-13-----|
 |--------------------------------------------------|
 |----------------------------------------------14--|
 |--------------------------------------------------|
 |--------------------------------------------------|

S S S S S S S S S S S S S S S S E S E S E E S E S E
 
 |-------------------------------------------------|---------------------|
 |-------------------------------------------------|---------------------|
 |-11-12-------11----------------------------------|---------------------|
 |-------13-14-------------------------------------|---------------------|
 |----------------12-14-15-------------------------|---------------------|
 |-------------------------12-14-15-11-12-14-10-12-|-2-0-2-0-2-2-0-2-0-2-|

E S E S E E S E S E E S E S E E S E S E
 
 |---------------------|---------------------|
 |---------------------|---------------------|
 |---------------------|---------------------|
 |---------------------|---------------------|
 |---------------------|---------------------|
 |-2-0-2-0-2-2-0-2-0-2-|-2-0-2-0-2-2-0-2-0-2-|

E S E S E Q Q [C#5]E S S S S S S [C#5]E S S S S S S
 
 |-----------------||-----------------------------|
 |-----------------||-----------------------------|
 |-----------------||-3-------------3-------------|
 |-----------4--2--||-1-1-1-1-1-1-1-1-1-1-1-1-1-1-|
 |-----------------||-----------------------------|
 |-2-0-2-0-2-------||-----------------------------|

[C#5]E S S [C#5]E S S S S S S S S S S [C#5]E S S S S S S [C#5]E S S S S S S
 
 |-----------------------------|-----------------------------|
 |-----------------------------|-----------------------------|
 |-3-----3---------------------|-3-------------3-------------|
 |-1-1-1-1-1-1-1-1-1-1-1-1-1-1-|-1-1-1-1-1-1-1-1-1-1-1-1-1-1-|
 |-----------------------------|-----------------------------|
 |-----------------------------|-----------------------------|

[C#5]E S S [C#5]E S S S S S S S S S S E S E S E E S E S E
 
 |-----------------------------|---------------------|
 |-----------------------------|---------------------|
 |-3-----3---------------------|---------------------|
 |-1-1-1-1-1-1-1-1-1-1-1-1-1-1-|-0-------------------|
 |-----------------------------|---3-5-3-5-5-3-5-3-5-|
 |-----------------------------|---------------------|

E S E S E E S E S E E S E S E E S E S E
 
 |---------------------|---------------------|
 |---------------------|---------------------|
 |---------------------|---------------------|
 |---------------------|---------------------|
 |-5-3-5-3-5-5-3-5-3-5-|-5-3-5-3-5-5-3-5-3-5-|
 |---------------------|---------------------|

E S E S E Q Q [A5]E S S S S S S [A5]E S S S S S S
 
 |-----------------|-----------------------------|
 |-----------3--1--|-----------------------------|
 |-----------------|-----------------------------|
 |-----------------|-4-------------4-------------|
 |-5-3-5-3-5-------|-2-2-2-2-2-2-2-2-2-2-2-2-2-2-|
 |-----------------|-----------------------------|

[A5]E S S [A5]E S S S S S S S S S S [A5]E S S S S S S [A5]E S S S S S S
 
 |-----------------------------|-----------------------------|
 |-----------------------------|-----------------------------|
 |-----------------------------|-----------------------------|
 |-4-----4---------------------|-4-------------4-------------|
 |-2-2-2-2-2-2-2-2-2-2-2-2-2-2-|-2-2-2-2-2-2-2-2-2-2-2-2-2-2-|
 |-----------------------------|-----------------------------|

[A5]E S S [A5]E S S [A5]E S S [A5]E S S E E E S S S S S S S S E
 
 |-------------------------|--------------------------|
 |-------------------------|--------------------------|
 |-------------------------|------------------6-8-6-9-|
 |-4-----4-----4-----4-----|--------------8-9---------|
 |-2-2-2-2-2-2-2-2-2-2-2-2-|-6-6-6-7-9-11-------------|
 |-------------------------|--------------------------|

S S S S S S S S S E E. S S S S S S S S S S S S S S S S S S
 
 |---------------6-4-7--------|--------7-8-10-11-10-11-10-8-7-8-10-11-10-|
 |---------5-7-9------------4-|-6-8-10-----------------------------------|
 |-----6-8----------------7---|------------------------------------------|
 |---9------------------------|------------------------------------------|
 |---------------------6------|------------------------------------------|
 |----------------------------|------------------------------------------|

S S S S S S S S S S S S S S S S
 
 |-11-10-8-7-8-10-11-10-8-7-8-10-8-7------|
 |-----------------------------------10-8-|
 |----------------------------------------|
 |----------------------------------------|
 |----------------------------------------|
 |----------------------------------------|

S S S S S S S S S S S S S S S S
 
 |--------7-8-10-11-10-11-10-8-7-8-10-11-10-|
 |-6-8-10-----------------------------------|
 |------------------------------------------|
 |------------------------------------------|
 |------------------------------------------|
 |------------------------------------------|

S S S S S S S S S S S S S S S S
 
 |-11-10-8-7-8-10-11-10-8-7-8-10-8-7------|
 |-----------------------------------10-8-|
 |----------------------------------------|
 |----------------------------------------|
 |----------------------------------------|
 |----------------------------------------|

S S S S S S S S S S S S S S S S
 
 |--------7-8-10-11-10-11-10-8-7-8-10-11-10-|
 |-6-8-10-----------------------------------|
 |------------------------------------------|
 |------------------------------------------|
 |------------------------------------------|
 |------------------------------------------|

S S S S S S S S S S S S S S S S
 
 |-11-10-8-7-8-10-11-10-8-7-8-10-8-7------|
 |-----------------------------------10-8-|
 |----------------------------------------|
 |----------------------------------------|
 |----------------------------------------|
 |----------------------------------------|

S S S S S S S S S S S S S S S S
 
 |--------7-8-10-11-10-11-10-8-7-8-10-11-10-|
 |-6-8-10-----------------------------------|
 |------------------------------------------|
 |------------------------------------------|
 |------------------------------------------|
 |------------------------------------------|

Pre-Chorus
S S S S S S S S S S S S S S S S S S S S Q S S S S S S S S
 
 |-11-10-8-7-8-10-11-10-8-7-8-10-8-7------|-----------------------------|
 |-----------------------------------10-8-|-----------------------------|
 |----------------------------------------|-----------------------------|
 |----------------------------------------|-----------------------------|
 |----------------------------------------|-0-0-0-0-0--0-0-0-0-0-0-0-0--|
 |----------------------------------------|-----------------------------|

Q S S S S Q S S S S S S S S Q S S S S Q
 
 |-----------------------|-----------------------|
 |-----------------------|-----------------------|
 |-----------------------|-----------------------|
 |-----------------------|-----------------------|
 |-0--0-0-0-0-0--0-0-0-0-|-0-0-0-0-0--0-0-0-0-0--|
 |-----------------------|-----------------------|

S S S S S S S S Q S S S S Q S S S S S S S S Q
 
 |----------------------------|------------------------|
 |----------------------------|------------------------|
 |----------------------------|------------------------|
 |----------------------------|------------------------|
 |-0-0-0-0-0-0-0-0-0--0-0-2-3-|-0--0-0-0-0-0-0-0-0-0---|
 |----------------------------|------------------------|

S S S S Q S S S S S S S S Q S S S S Q S S S S
 
 |----------------------------|------------------------|
 |----------------------------|------------------------|
 |----------------------------|------------------------|
 |----------------------------|------------------------|
 |-0-0-0-0-0--0-0-0-0-0-0-0-0-|-0--0-0-0-0-0--0-0-0-0--|
 |----------------------------|------------------------|

Chorus
S S S S S S S S S S S S S S S S [D5]E. [C#5]S +E [A#5]E S S S S [A#5A5]E. S
 
 |---------------------------------|--------------------------|
 |---------------------------------|--------------------------|
 |-----------------1-2-1-----------|-4--3-(3)-----------------|
 |-2-----------2-3-------3-2-0-2-3-|-2--1-(1)-5---------5--4--|
 |---5-3-2-3-5---------------------|----------3---------3--2--|
 |---------------------------------|------------0-0-0-0-------|

+E [G#5]E S S S S [F5E5]S S S S [F5E5]S S S S
 
 |-------------------------------|
 |-------------------------------|
 |-------------------------------|
 |-(4)-3-------------------------|
 |-(2)-1---------5-4-----5-4-----|
 |-------0-0-0-0-3-2-0-0-3-2-0-0-|

[D5]E. [C#5]S +E [A#5]E S S S S [A#5A5]E. S +E [G#5]E S S S S S S S S [A#5]Q
 
 |-------------------------|---------------------------|
 |-------------------------|---------------------------|
 |-4--3-(3)----------------|-----------------------5---|
 |-2--1-(1)-5---------5--4-|-(4)-3-----------------5---|
 |----------3---------3--2-|-(2)-1-----------------3---|
 |------------0-0-0-0------|-------0-0-0-0-3-2-0-0-----|

[D5]E. [C#5]S +E [A#5]E S S S S [A#5A5]E. S +E [G#5]E S S S S [F5E5]S S S S [F5E5]S S S S [A#5]W
 
 |-------------------------|-------------------------------|------|
 |-------------------------|-------------------------------|------|
 |-4--3-(3)----------------|-------------------------------|-5----|
 |-2--1-(1)-5---------5--4-|-(4)-3-------------------------|-5----|
 |----------3---------3--2-|-(2)-1---------5-4-----5-4-----|-3----|
 |------------0-0-0-0------|-------0-0-0-0-3-2-0-0-3-2-0-0-|------|

E S S S S S S S S S S Q [D5]E. [C#5]S +E [A#5]E S S S S [A#5A5]E. S
 
 |--------------------------|-------------------------|
 |---------------1-4---1----|-------------------------|
 |-------------2-----2------|-4--3-(3)----------------|
 |---------1-4-----------1--|-2--1-(1)-5---------5--4-|
 |-0---0-3------------------|----------3---------3--2-|
 |---2----------------------|------------0-0-0-0------|

+E [G#5]E S S S S [F5E5]S S S S [F5E5]S S S S
 
 |-------------------------------|
 |-------------------------------|
 |-------------------------------|
 |-(4)-3-------------------------|
 |-(2)-1---------5-4-----5-4-----|
 |-------0-0-0-0-3-2-0-0-3-2-0-0-|

[D5]E. [C#5]S +E [A#5]E S S S S [A#5A5]E. S
 
 |-------------------------|
 |-------------------------|
 |-4--3-(3)----------------|
 |-2--1-(1)-5---------5--4-|
 |----------3---------3--2-|
 |------------0-0-0-0------|

+E [G#5]E S S S S S S S S [A#5]Q [D5]E. [C#5]S +E [A#5]E S S S S [A#5A5]E. S
 
 |--------------------------|--------------------------|
 |--------------------------|--------------------------|
 |-----------------------5--|-4--3-(3)-----------------|
 |-(4)-3-----------------5--|-2--1-(1)-5---------5--4--|
 |-(2)-1-----------------3--|----------3---------3--2--|
 |-------0-0-0-0-3-2-0-0----|------------0-0-0-0-------|

+E [G#5]E S S S S [F5E5]S S S S [F5E5]S S S S [A#5]W [G5]H [A5]H
 
 |-------------------------------|----------|-----------|
 |-------------------------------|----------|-----------|
 |-------------------------------|-5--------|-----------|
 |-(4)-3-------------------------|-5--------|-2----4----|
 |-(2)-1---------5-3-----5-3-----|-3--------|-0----2----|
 |-------0-0-0-0-3-2-0-0-3-2-0-0-|----------|-----------|

Outro
[F#sus4] [F5E5] [F5E5] [F5E5]  
H H [5/4] S S S S Q S S S S S S S S Q
 
 |-----------||--------------------------------|
 |-----------||o-------------------------------|
 |-----------||--------------------------------|
 |-4----3----||--------------------------------|
 |-4---------||o-5-4-4-4-4--5-4-4-4-5-4-4-4-4--|
 |-----------||--3-2-2-2-2--3-2-2-2-3-2-2-2-2--|

[F5E5] [F5E5] [F5E5] [F5E5]  
[7/4] S S S S Q S S S S S S S S S S S S S S S S Q 3x
 
 |------------------------------------------------||
 |-----------------------------------------------o||
 |------------------------------------------------||
 |------------------------------------------------||
 |-5-4-4-4-4--5-4-4-4-5-4-4-4-4-4-5-4-4-4-4-4-4--o||
 |-3-2-2-2-2--3-2-2-2-3-2-2-2-2-2-3-2-2-2-2-2-2---||

[5/4] S S S S Q S S S S S S S S Q
 
 |-------------------------------|
 |-------------------------------|
 |-------------------------------|
 |-------------------------------|
 |-5-4-4-4-4--5-4-4-4-5-4-4-4-4--|
 |-3-2-2-2-2--3-2-2-2-3-2-2-2-2--|

[7/4] S S S S Q S S S S S S S S S S S S S S S S Q
 
 |-----------------------------------------------|
 |-----------------------------------------------|
 |-----------------------------------------------|
 |-----------------------------------------------|
 |-5-4-4-4-4--5-4-4-4-5-4-4-4-4-4-5-4-4-4-4-4-4--|
 |-3-2-2-2-2--3-2-2-2-3-2-2-2-2-2-3-2-2-2-2-2-2--|

Keyboard outro
Q=131
[4/4] +W +W
 
 |------------|--------|
 |------------|--------|
 |------------|--------|
 |------------|--------|
 |-(4)--------|-(4)----|
 |-(2)--------|-(2)----|

+W +W
 
 |------------|--------|
 |------------|--------|
 |------------|--------|
 |------------|--------|
 |-(4)--------|-(4)----|
 |-(2)--------|-(2)----|

+W
 
 |--------*|
 |--------*|
 |--------*|
 |--------*|

|-(4)----*|
|-(2)----*|
Duration Legend
 
 ---------------
 W - whole; H - half; Q - quarter; E - 8th; S - 16th; T - 32nd; X - 64th; a - acciaccatura

+ - note tied to previous; . - note dotted; .. - note double dotted
Uncapitalized letters represent notes that are staccato (1/2 duration)
Irregular groupings are notated above the duration line
Duration letters will always appear directly above the note/fret number it represents the
duration for. Duration letters with no fret number below them represent rests. Multi-
bar rests are notated in the form Wxn, where n is the number of bars to rest for. Low
melody durations appear below the staff
Tablature Legend
 
 ----------------

h - hammer-on
p - pull-off
b - bend
pb - pre-bend
r - bend release (if no number after the r, then release immediately)
/\ - slide into or out of (from/to "nowhere")
s - legato slide
S - shift slide
- natural harmonic
[n] - artificial harmonic
n(n) - tapped harmonic
~ - vibrato
tr - trill
T - tap
TP - trem. picking
PM - palm muting
\n/ - tremolo bar dip; n = amount to dip
\n - tremolo bar down
n/ - tremolo bar up
/n\ - tremolo bar inverted dip
= - hold bend; also acts as connecting device for hammers/pulls
- volume swell (louder/softer)
x - on rhythm slash represents muted slash
o - on rhythm slash represents single note slash
Misc Legend
 
 -----------

| - bar
|| - double bar
||o - repeat start
o|| - repeat end
*| - double bar (ending)
: - bar (freetime)
$ - Segno
& - Coda
Tempo markers - = BPM(8/16=s8/s16), where s8 = swing 8ths, s16 = swing 16ths

Important: The song above is NOT stored on the Chordie server. The original song is hosted at www.guitaretab.com. Chordie works as a search engine and provides on-the-fly formatting. Chordie does not index songs against artists'/composers' will. To remove this song please click here.

Text color:
Chord color:
Chord grids: 
Font size:    
Page size: 

A#5 A5 C#5 C5 D#5 D5 E5 F#5 F#sus4 F5 G#5 G5
Rate #1 of 3 versions

Jango Player

Login - add to songbook

SHARE PAGE  




You need to log in to post comments