Guitar Tabs, Chords and Lyrics
Major upgrade!! After one year development the new version of Chordie is now online! Please give feedback.


Sonata   Symphony X

 
 |--------3--------|

 


 Q Q Q Q H. S +S +E +E


 

 
 |----------------|--------------------------------|
 |--------13--15--|-/16------16-(16)b18==(16)r(16)-|
 |---/12----------|--------------------------------|
 |----------------|--------------------------------|
 |----------------|--------------------------------|
 |----------------|--------------------------------|

 


 


 ~~~~~~ ~~~


 

 
 |--------3--------|

 


 Q +H S +S +E +E H. +Q


 

 
 |--------------------------------------|---------------|
 |-[15]--([15])---15-(15)b16==(15)r(15)-|-13-----(13)\--|
 |--------------------------------------|---------------|
 |--------------------------------------|---------------|
 |--------------------------------------|---------------|
 |--------------------------------------|---------------|

 


 


 \1/ \1/ \1/


 Q Q Q Q Q Q Q Q


 

 
 |--------------------|---------------------|
 |-/13--12--13--15----|-16p===15h=16--18----|
 |--------------------|---------------------|
 |--------------------|---------------------|
 |--------------------|---------------------|
 |--------------------|---------------------|

 


 


 \1/ \0.5/ \0.5/ \0.5/ \0.5/


 ~~~~~~~


 Q. +E +Q. +E +W


 

 
 |-----------------------------------|------------|
 |-20-----(20)----(20)-------(20)----|-(20)-------|
 |-----------------------------------|------------|
 |-----------------------------------|------------|
 |-----------------------------------|------------|
 |-----------------------------------|------------|

 


 


 ~~~~


 +H. T T T T T T T T


 

 
 |---------------------------13h15h|
 |-(20)-------------13h15h16-------|
 |---------12h13h16----------------|
 |---------------------------------|
 |---------------------------------|
 |---------------------------------|

 


 


 ~~~~~~~~~~~~~


 

 
 |----5:3----|

 


 H. +S S S S S S H Q Q


 

 
 |-16-------(16)-15p13----------|------------13---|
 |---------------------16p15p13-|-15----/16-------|
 |------------------------------|-----------------|
 |------------------------------|-----------------|
 |------------------------------|-----------------|
 |------------------------------|-----------------|

 


 


 ~~ ~~


 H Q +E +E H Q Q


 

 
 |-15----15b16===(15)r(15)-|-14-------------|
 |-------------------------|-------/13h=15--|
 |-------------------------|----------------|
 |-------------------------|----------------|
 |-------------------------|----------------|
 |-------------------------|----------------|

 


 


 ~~~


 

 
 |--------3--------|

 


 H +Q S +S +E +E


 

 
 |-------------------------------------|
 |-/16----(16)\--16-(16)b18==(16)r(16)-|
 |-------------------------------------|
 |-------------------------------------|
 |-------------------------------------|
 |-------------------------------------|

 


 


 ~~~~


 

 
 |----------3-----------|

 


 Q +H S +S +E +E


 

 
 |-----------------------------------------|
 |-15--(15)----15-([15])b16==([15])r([15])-|
 |-----------------------------------------|
 |-----------------------------------------|
 |-----------------------------------------|
 |-----------------------------------------|

 


 


 \1


 |--3--|


 H. +E +E H. +E S S S


 

 
 |--------------------|-------------------------|
 |-13-------(13)-(13)-|-/14-------(14)-13h14p13-|
 |--------------------|-------------------------|
 |--------------------|-------------------------|
 |--------------------|-------------------------|
 |--------------------|-------------------------|

 


 


 Q Q. +E E E


 

 
 |-----13b15r==(13)-------|
 |-12---------------15p12-|
 |------------------------|
 |------------------------|
 |------------------------|
 |------------------------|

 


 


 \1/


 

 
 |-----5-----| |-3--| |-3--| |-3--| |-3--|

 


 E T T T T T S S S S S S S S S S S S Q


 

 
 |--------------------------------------------------------|
 |-15p==12h15p12------------------------------------------|
 |---------------13p10------------------------------------|
 |---------------------12p9-------------------------------|
 |--------------------------10p8-10p8-10p8-10-8-10-8-10\--|
 |--------------------------------------------------------|

 


 


 [7/4] >


 ~~~~


 Q +W.


 

 
 |-/14--(14)----*|
 |--------------*|
 |--------------*|
 |--------------*|
 |--------------*|
 |--------------*|

 


 


 


 Duration Legend


 

 
 ---------------
 W - whole; H - half; Q - quarter; E - 8th; S - 16th; T - 32nd; X - 64th; a - acciaccatura

 


 + - note tied to previous; . - note dotted; .. - note double dotted


 Uncapitalized letters represent notes that are staccato (1/2 duration)


 Irregular groupings are notated above the duration line


 Duration letters will always appear directly above the note/fret number it represents the


 duration for. Duration letters with no fret number below them represent rests. Multi-


 bar rests are notated in the form Wxn, where n is the number of bars to rest for. Low


 melody durations appear below the staff


 


 Tablature Legend


 

 
 ----------------

 


 h - hammer-on


 p - pull-off


 b - bend


 pb - pre-bend


 r - bend release (if no number after the r, then release immediately)


 /\ - slide into or out of (from/to "nowhere")


 s - legato slide


 S - shift slide


 - natural harmonic


 [n] - artificial harmonic


 n(n) - tapped harmonic


 ~ - vibrato


 tr - trill


 T - tap


 TP - trem. picking


 PM - palm muting


 \n/ - tremolo bar dip; n = amount to dip


 \n - tremolo bar down


 n/ - tremolo bar up


 /n\ - tremolo bar inverted dip


 = - hold bend; also acts as connecting device for hammers/pulls


 - volume swell (louder/softer)


 x - on rhythm slash represents muted slash


 o - on rhythm slash represents single note slash


 


 Misc Legend


 

 
 -----------


Important: The song above is NOT stored on the Chordie server. The original song is hosted at www.guitaretab.com. Chordie works as a search engine and provides on-the-fly formatting. Chordie does not index songs against artists'/composers' will. To remove this song please click here.

This song is displayed as text-only. Transposing and tuning is only available for chordpro-songs.
Rate #1 of 2 versions

Jango Player

Login - add to songbook

SHARE PAGE  




You need to log in to post comments