Guitar Tabs, Chords and Lyrics
Major upgrade!! After one year development the new version of Chordie is now online! Please give feedback.


Paregoric   Tad

 
 |-----------------------------------------------------------|
 |-----------------------------------------------------------|
 |-----------------------------------------------------------|
 |-0---0--3--3-5-5-5-5-6-------------------------------------|
 |-0---0--3--3-5-5-5-5-6-------------------------------------|
 |-0---0--3--3-5-5-5-5-6-------------------------------------|

 


 [d] [d] [d] [d] [d] [u] [d] [u] [d]  


 BRIDGE:


 guitar 1=


 

 
 |-----------------------------------------------------------|
 |-----------------------------------------------------------|
 |-7-----------10-----------7-------------5------------------|
 |-x-----------x------------x-------------x------------------|
 |-5-----------8------------5-------------3------------------|
 |-----------------------------------------------------------|

 


 


 guitar 2=


 

 
 |-----------------------------------------------------------|
 |------------10----8------10--------------------------------|
 |--7~~--7-10----10---7-10----10-7-(and-repeat)--------------|
 |-----------------------------------------------------------|
 |-----------------------------------------------------------|
 |-----------------------------------------------------------|

 


 


 "Too Late" PART:


 

 
 |-----------------------------------------------------------|
 |-----------------------------------------------------------|
 |-----------------------------------------------------------|
 |-0-3-5-3-0-3-0-3-0-----0-3-5-3-0-3-0-3-0-------------------|
 |-0-3-5-3-0-3-0-3-0-----0-3-5-3-0-3-0-3-0-------------------|
 |-0-3-5-3-0-3-0-3-0-----0-3-5-3-0-3-0-3-0-------------------|


Important: The song above is NOT stored on the Chordie server. The original song is hosted at www.guitaretab.com. Chordie works as a search engine and provides on-the-fly formatting. Chordie does not index songs against artists'/composers' will. To remove this song please click here.

This song is displayed as text-only. Transposing and tuning is only available for chordpro-songs.
Rate #2 of 2 versions

Jango Player

Login - add to songbook

SHARE PAGE  



You need to log in to post comments