Guitar Tabs, Chords and Lyrics
Major upgrade!! After one year development the new version of Chordie is now online! Please give feedback.


Who Do You Tell?  Tamia

 
 -------------------------------------------------------------------------------

Who do you tell- Tamia
 
 -------------------------------------------------------------------------------

Tabbed by:Jeff Kamungu
Email:geoffykom@yahoo.com
Tuning:Standard
A E F#m A sus A (on D)
 
 e|---------0--|------------|---------------|-----------|-------0---|---------|
 B|--2---------|--0---------|---------------|--0----2---|--2--------|---------|
 G|-----2------|--1---2---1-|------2--------|-----------|-----2-----|---------|
 D|------------|------------|-----2---2---4-|---(2)-----|--0--------|---------|
 A|--0---------|------------|----4----------|--0--------|-----------|---------|
 E|------------|--0---------|---2-----------|-----------|-----------|---------|

E F#m A sus A (on D) E
 
 e|------------|--------------|-------------|---------0-|-------------|-------|
 B|--0---------|--------------|--0----------|--2--------|--0----------|-------|
 G|--1---2---1-|-----2--------|--2----------|------2----|--1---2---1--|-------|
 D|------------|----2---2---4-|-----4-------|--0--------|-------------|-------|
 A|------------|---4----------|--0----------|-----------|-------------|-------|
 E|--0---------|--2-----------|-------------|-----------|--0----------|-------|

[F#m] [A] [sus] [Bm7] [Bm7] [Esus7/]  
 
 e|-------------|------------|-------------|------------|----------0-|---------|
 B|-------------|--0-------2-|--3--2--3--2-|--3---------|----------0-|---------|
 G|-----2-------|------------|-------------|-----2------|--2-------4-|---------|
 D|----2--2---4-|------4-----|-------------|-------4----|--0-------2-|---------|
 A|---4---------|--0---------|--2----------|--2---------|--2-------2-|---------|
 E|--2----------|------------|-------------|------------|--0-------0-|---------|

Bridge chords:D E(on D) Em G (on A)
A Bm F(on G) ...........E
Am not quite familiar with the spacing between the chords but this is just about how the
is played through.
Verse 1:
There You Were In A Crowded Room
With Someone At Least I Assume
How Did I Know I Would Fall In Love
With You...
So Soon...
Just One Look In You Eyes And I See The Truth
And I Try Hard To Hide That I'm Made For You
But I Know Deep Inside Things That We Could Do
Just As Long As Were Together... Oh..
Chorus:
But, Who Do You Tell When You Love Someone
Hoping That Someone's In Love With You
But, Who Do You Tell When You Love Someone
I Think I Might As Well Tell You
Verse 2:
I Can't Believe That I Feel This Way
There Is So Much That I Want To Say
I Wan't To
(Touch You) Hold You
(Feel You) Please You
As Were Making Love All Through The Night
We Would Talk To Each Other
We Would Laugh And Play
We Would Play This Forever Every Night And Day
We Would Share Every Memory 'Till The End Of Time
(In My Mind) In My Mind Baby.. Oh..
Chorus (Repeat 2x)
Verse 3:
Oh I've Hesitated Much Too Many Times
And I Won't Let You Step Away From Me.. No..
I Know Your'e For Me And Me For You
(Ooh) But I Don't Know What To Say Or Do..
So Now That Were Together I'm Telling You..
Chorus (1x)
I Think I Might As Well...
Tell You...
===============================================================================

Important: The song above is NOT stored on the Chordie server. The original song is hosted at www.guitaretab.com. Chordie works as a search engine and provides on-the-fly formatting. Chordie does not index songs against artists'/composers' will. To remove this song please click here.

Text color:
Chord color:
Chord grids: 
Font size:    
Page size: 

A Bm7 F#m
Rate #2 of 3 versions

Login - add to songbook

SHARE PAGE  




You need to log in to post comments