Guitar Tabs, Chords and Lyrics
Server problems seems to be fixed. Chordie has been experiencing problems with songs disappearing. These issues now seems to be fixed, but still verifying the fix. If you find anything strange, please email admin@chordie.com.


Alcohol   Tankard

 
 |---------------------|---------------------|
 |---------------------|---------------------|
 |---------------------|---------------------|
 |--------11--11-11-11-|-11-11-11-11b13r==9--|
 |-9-11-7--------------|---------------------|
 |---------------------|---------------------|

 


 |


 | Gtr II


 | PM


 

 
 |---------------------|---------------------|
 |---------------------|---------------------|
 |---------------------|---------------------|
 |---------------------|---------------------|
 |-4S=6----4-----------|---------------------|
 |-2S=4-0--2-----------|---------------------|
 |---------------------|--------------------|
 |---------------------|--------------------|
 |---------------------|--------------------|
 |--------11--11-11-11-|-11-11-11-11b13r==9-|
 |-9-11-7--------------|--------------------|
 |---------------------|--------------------|

 


 |


 | PM


 

 
 |---------------------|--------------------|
 |---------------------|--------------------|
 |---------------------|--------------------|
 |---------------------|--------------------|
 |-4S=6----4-----------|--------------------|
 |-2S=4-0--2-----------|--------------------|
 |-----------------|-------------------------|---------------------|--------|
 |-----------------|-------------------------|---------------------|--------|
 |-----------------|-------------------------|---------------------|--------|
 |--------9--9-9-9-|-9-9-9-9b11r9b11r9-7h9p7-|--------11--11-11-11-|-11\----|
 |-9-11-7----------|-------------------------|-9-11-7--------------|--------|
 |-----------------|-------------------------|---------------------|--------|

 


 |


 | PM PM


 

 
 |-----------------|-------------------------|---------------------|--------|
 |-----------------|-------------------------|---------------------|--------|
 |-----------------|-------------------------|---------------------|--------|
 |-----------------|-------------------------|---------------------|--------|
 |-4S=6---2--------|-------------------------|-4S=6----4-----------|--------|
 |-2S=4-0-0--------|-------------------------|-2S=4-0--2-----------|--------|

 


 


 Verse


 

 
 PM PM--| PM--| PM--| PM PM--| PM--| PM--|
 ||-----------------|-------------------|----------------|--------------------|
 ||o----------------|-------------------|----------------|--------------------|
 ||-----------------|-------------------|----------------|--------------------|
 ||-----------------|-------------------|----------------|--------------------|
 ||o-4S6---4--------|-4--------4--------|-4S6---4--------|-4--------4---------|
 ||--2S4-0-2--0-0-0-|-2--0-0-0-2--0-0-0-|-2S4-0-2--0-0-0-|-2--0-0-0-2--0-0-0--|
 PM PM----------------------------|
 |----------------|-------------------------|
 |----------------|-------------------------|
 |----------------|-------------------------|
 |----------------|-------------------------|
 |-4S6---2--------|-------------------------|
 |-2S4-0-0--0-0-0-|-0-0-0-0-0-0-0-0-0-0-0-0-|
 PM PM--| PM--| PM--|
 |----------------|--------------------||
 |----------------|-------------------o||
 |----------------|--------------------||
 |----------------|--------------------||
 |-4S6---4--------|-4--------4--------o||
 |-2S4-0-2--0-0-0-|-2--0-0-0-2--0-0-0--||

 


 


 Chorus


 

 
 |----------|----------|-----------------------|-------------------------|
 |----------|----------|-----------------------|-------------------------|
 |----------|----------|-----------------------|-------------------------|
 |-4--------|-7--------|-11--11-11-11-11-11-11-|-11-11-11-11-11-11-11-11-|
 |-2--------|-5--------|--9---9--9--9--9--9--9-|--9--9--9--9--9--9--9--9-|
 |----------|----------|-----------------------|-------------------------|
 |----------|----------|-----------------------|-------------------------|
 |----------|----------|-----------------------|-------------------------|
 |----------|----------|-----------------------|-------------------------|
 |-4--------|-7--------|-11--11-11-11-11-11-11-|-11-11-11-11-11-11-11-11-|
 |-2--------|-5--------|--9---9--9--9--9--9--9-|--9--9--9--9--9--9--9--9-|
 |----------|----------|-----------------------|-------------------------|

 


 


 [2/4]  

 
 |----------|----------|----------------|---------|
 |----------|----------|----------------|---------|
 |----------|----------|----------------|---------|
 |-4--------|-7--------|-5--5-5-5-5-5-5-|-5-5-5-5-|
 |-2--------|-5--------|-3--3-3-3-3-3-3-|-3-3-3-3-|
 |----------|----------|----------------|---------|

 


 


 Verse


 [4/4]  

 
 PM PM--| PM--| PM--| PM PM--| PM--| PM--|
 ||-----------------|-------------------|----------------|-------------------|
 ||o----------------|-------------------|----------------|-------------------|
 ||-----------------|-------------------|----------------|-------------------|
 ||-----------------|-------------------|----------------|-------------------|
 ||o-4S6---4--------|-4--------4--------|-4S6---4--------|-4--------4--------|
 ||--2S4-0-2--0-0-0-|-2--0-0-0-2--0-0-0-|-2S4-0-2--0-0-0-|-2--0-0-0-2--0-0-0-|
 PM PM----------------------------|
 |----------------|-------------------------|
 |----------------|-------------------------|
 |----------------|-------------------------|
 |----------------|-------------------------|
 |-4S6---2--------|-------------------------|
 |-2S4-0-0--0-0-0-|-0-0-0-0-0-0-0-0-0-0-0-0-|
 PM PM--| PM--| PM--|
 |----------------|--------------------||
 |----------------|-------------------o||
 |----------------|--------------------||
 |----------------|--------------------||
 |-4S6---4--------|-4--------4--------o||
 |-2S4-0-2--0-0-0-|-2--0-0-0-2--0-0-0--||

 


 


 Chorus


 

 
 |----------|----------|-----------------------|-------------------------|
 |----------|----------|-----------------------|-------------------------|
 |----------|----------|-----------------------|-------------------------|
 |-4--------|-7--------|-11--11-11-11-11-11-11-|-11-11-11-11-11-11-11-11-|
 |-2--------|-5--------|--9---9--9--9--9--9--9-|--9--9--9--9--9--9--9--9-|
 |----------|----------|-----------------------|-------------------------|
 |----------|----------|-----------------------|-------------------------|
 |----------|----------|-----------------------|-------------------------|
 |----------|----------|-----------------------|-------------------------|
 |-4--------|-7--------|-11--11-11-11-11-11-11-|-11-11-11-11-11-11-11-11-|
 |-2--------|-5--------|--9---9--9--9--9--9--9-|--9--9--9--9--9--9--9--9-|
 |----------|----------|-----------------------|-------------------------|

 


 


 [2/4]  

 
 |----------|----------|----------------|---------|
 |----------|----------|----------------|---------|
 |----------|----------|----------------|---------|
 |-4--------|-7--------|-5--5-5-5-5-5-5-|-5-5-5-5-|
 |-2--------|-5--------|-3--3-3-3-3-3-3-|-3-3-3-3-|
 |----------|----------|----------------|---------|

 


 


 Solo


 [4/4] Gtr I


 

 
 |-------------------------|-----------------------------|
 |-------------------------|-----------------------------|
 |-------------------------|-----------------------------|
 |--------11--11-11---11---|-11-11-11---11b13r=====9-----|
 |-9-11-7------------------|-----------------------------|
 |-------------------------|-----------------------------|

 


 |


 | Gtr II


 

 
 | PM PM-----| PM--------| PM--|
 |-------------------------|-----------------------------|
 |-------------------------|-----------------------------|
 |-------------------------|-----------------------------|
 |-------------------------|-----------------------------|
 |-4S=6----4---------------|--4-----------------4--------|
 |-2S=4-0--2------0-0----0-|--2-----0-0-------0-2--0-0-0-|
 |-------------------------|------------------------------|
 |-------------------------|------------------------------|
 |-------------------------|------------------------------|
 |--------11--11-11---11---|-11-11-11---11b13r=====9------|
 |-9-11-7------------------|------------------------------|
 |-------------------------|------------------------------|

 


 |


 

 
 | PM PM-----| PM--------| PM--|
 |-------------------------|------------------------------|
 |-------------------------|------------------------------|
 |-------------------------|------------------------------|
 |-------------------------|------------------------------|
 |-4S=6----4---------------|--4-----------------4---------|
 |-2S=4-0--2------0-0----0-|--2-----0-0-------0-2--0-0-0--|
 |---------------------|-----------------------------------------|
 |---------------------|-----------------------------------------|
 |---------------------|-----------------------------------------|
 |--------9--9-9---9---|-9---9---9---9b11r==9b11r==9---7h9p==7---|
 |-9-11-7--------------|-----------------------------------------|
 |---------------------|-----------------------------------------|

 


 |


 

 
 | PM PM----------------------------------------------|
 |---------------------|-----------------------------------------|
 |---------------------|-----------------------------------------|
 |---------------------|-----------------------------------------|
 |---------------------|-----------------------------------------|
 |-4S=6---2------------|-----------------------------------------|
 |-2S=4-0-0----0-0---0-|-0-0---0-0-0------0-0----0---0-0---0---0-|
 |-------------------------|--------------------|
 |-------------------------|--------------------|
 |-------------------------|--------------------|
 |--------11--11-11---11---|-x\-----------------|
 |-9-11-7------------------|--------------------|
 |-------------------------|--------------------|

 


 |


 

 
 | PM PM-----| PM--| PM--|
 |-------------------------|--------------------|
 |-------------------------|--------------------|
 |-------------------------|--------------------|
 |-------------------------|--------------------|
 |-4S=6----4---------------|-4---------4--------|
 |-2S=4-0--2------0-0----0-|-2---0-0-0-2--0-0-0-|
 |---------------------|------------------------|
 |---------------------|------------------------|
 |---------------------|------------------------|

 


 |-9b11r==9b11r=9b11r==|=11b13r==11b13r=11b13r==|


 

 
 |---------------------|------------------------|
 |---------------------|------------------------|
 |---------------------|----------------------|
 |---------------------|----------------------|

 


 |-9b11r==9b11r=9b11r==|=8b10r==8b10r=8b10r===|


 

 
 |---------------------|----------------------|
 |---------------------|----------------------|
 |---------------------|----------------------|
 |---------------------|------------------------|---------------------|
 |---------------------|------------------------|---------------------|
 |---------------------|------------------------|-9b11r==9b11r=9b11r==|

 


 |-9b11r==9b11r=9b11r==|=11b13r==11b13r=11b13r==|=====================|


 

 
 |---------------------|------------------------|---------------------|
 |---------------------|------------------------|---------------------|
 |-------------------------|-------------------------|
 |-------------------------|-------------------------|

 


 |-8b10r==8b10r=8b10r=8b10r|=(8)--8b10r=8b10r=8b10r==|


 

 
 |-------------------------|-------------------------|
 |-------------------------|-------------------------|
 |-------------------------|-------------------------|

 


 


 Verse


 

 
 PM PM--| PM--| PM--| PM PM--| PM--| PM--|
 ||-----------------|-------------------|----------------|--------------------|
 ||o----------------|-------------------|----------------|--------------------|
 ||-----------------|-------------------|----------------|--------------------|
 ||-----------------|-------------------|----------------|--------------------|
 ||o-4S6---4--------|-4--------4--------|-4S6---4--------|-4--------4---------|
 ||--2S4-0-2--0-0-0-|-2--0-0-0-2--0-0-0-|-2S4-0-2--0-0-0-|-2--0-0-0-2--0-0-0--|
 PM PM----------------------------|
 |----------------|-------------------------|
 |----------------|-------------------------|
 |----------------|-------------------------|
 |----------------|-------------------------|
 |-4S6---2--------|-------------------------|
 |-2S4-0-0--0-0-0-|-0-0-0-0-0-0-0-0-0-0-0-0-|
 PM PM--| PM--| PM--|
 |----------------|--------------------||
 |----------------|-------------------o||
 |----------------|--------------------||
 |----------------|--------------------||
 |-4S6---4--------|-4--------4--------o||
 |-2S4-0-2--0-0-0-|-2--0-0-0-2--0-0-0--||

 


 


 Chorus


 

 
 |----------|----------|-----------------------|-------------------------|
 |----------|----------|-----------------------|-------------------------|
 |----------|----------|-----------------------|-------------------------|
 |-4--------|-7--------|-11--11-11-11-11-11-11-|-11-11-11-11-11-11-11-11-|
 |-2--------|-5--------|--9---9--9--9--9--9--9-|--9--9--9--9--9--9--9--9-|
 |----------|----------|-----------------------|-------------------------|
 |----------|----------|-----------------------|-------------------------|
 |----------|----------|-----------------------|-------------------------|
 |----------|----------|-----------------------|-------------------------|
 |-4--------|-7--------|-11--11-11-11-11-11-11-|-11-11-11-11-11-11-11-11-|
 |-2--------|-5--------|--9---9--9--9--9--9--9-|--9--9--9--9--9--9--9--9-|
 |----------|----------|-----------------------|-------------------------|

 


 


 [2/4] [4/4] PM


 

 
 |----------|----------|----------------|---------|-------------*|
 |----------|----------|----------------|---------|-------------*|
 |----------|----------|----------------|---------|-------------*|
 |-4--------|-7--------|-5--5-5-5-5-5-5-|-5-5-5-5-|-------------*|
 |-2--------|-5--------|-3--3-3-3-3-3-3-|-3-3-3-3-|-4S6---4-----*|
 |----------|----------|----------------|---------|-2S4-0-2-----*|

 


 


 Tablature Legend


 

 
 ----------------

 


 h - hammer-on


 p - pull-off


 b - bend


 pb - pre-bend


 r - bend release (if no number after the r, then release immediately)


 /\ - slide into or out of (from/to "nowhere")


 s - legato slide


 S - shift slide


 - natural harmonic


 (n) - artificial harmonic


 n(n) - tapped harmonic


 ~ - vibrato


 tr - trill


 T - tap


 TP - trem. picking


 PM - palm muting


 \n/ - tremolo bar dip; n = amount to dip


 \n - tremolo bar down


 n/ - tremolo bar up


 /n\ - tremolo bar inverted dip


 = - hold bend; also acts as connecting device for hammers/pulls


 - volume swell (louder/softer)


 x - on rhythm slash represents muted slash


 o - on rhythm slash represents single note slash


 


 Misc Legend


 

 
 -----------


Important: The song above is NOT stored on the Chordie server. The original song is hosted at www.guitaretab.com. Chordie works as a search engine and provides on-the-fly formatting. Chordie does not index songs against artists'/composers' will. To remove this song please click here.

This song is displayed as text-only. Transposing and tuning is only available for chordpro-songs.
Rate #1 of 3 versions

Jango Player

Login - add to songbook

SHARE PAGE  



You need to log in to post comments