Guitar Tabs, Chords and Lyrics
Major upgrade!! After one year development the new version of Chordie is now online! Please give feedback.


Walking Wounded  The Tea Party

Song: Walking Wounded
Transcribed by jordanlockert@yahoo.com
This is in Dropped D tuning for a
good sound on the chorus
Tablature Explanation:
h=hammer-on
p=pull-off
/=slide up or indicates picking
\=slide down
b=bend half
^=bend full
br, ^r=bend &release
~=let ring
little fill:
 
 -|-2-3-5-3-2-3-5-2-3-2-3--|
 -|--h-h-p-p-h-h-p-h-p-h---|
 -|------------------------|
 -|------------------------|
 -|------------------------|
 -|------------------------|

Verse:
[Gm] [A#] [Eb] [D]  
 
 -|--6------1------6------5--|
 -|--8------3------8------7--|
 -|--7------3------8------7--|
 -|--5------3------8------7--|
 -|--5------1------6------5--|
 -|--5-----------------------|

Chorus:
[Gm] [F] [Eb] [D]  
 
 -|--6------5------3------2--|
 -|--8------6------4------3--|
 -|--7------5------3------2--|
 -|--5------3------1------0--|
 -|--5------3------1------0--|
 -|--5------3------1------0--|

Bridge:
 
 -|------------------------------"how-doesit-feel------how.......feel"-------|
 -|--------------------------------------------------------------------------|
 -|-7---------9---------10--------12---------9---------9---------5---------2-|
 -|-5---------7---------8---------10---------7---------7---------3---------0-|
 -|-5---------7---------8---------10---------7---------7---------3---------0-|
 -|-5---------7---------8---------10---------7---------7---------3---------0-|

Solo. 2x:
 
 -|--------------------------------------------------------------------------|
 -|--------------------------------------------------------------------------|
 -|-------------------------------------------------------------------12^-12-|
 -|-5-7-7^r-5---7-8-8^r-7---8-10-10^r-8---12^---12^r--10----8^r-7------------|
 -|--------------------------------------------------------------------------|
 -|--------------------------------------------------------------------------|

Outro arrangement:
bass on bottom,
violin on top.
pluck.
 
 -|--3---3---3---3---3---3---3---3---3---3---3---3---3---3---3---3---
 -|------------------------------------------------------------------
 -|------------------------------------------------------------------
 -|------------------------------------------------------------------
 -|------------------0---------------1---------------3---------------
 -|--5---------------------------------------------------------------
 ----5---5---5---5---5---5---5---5---5---5---5---5---5---5---5---5----|
 ---------------------------------------------------------------------|
 ---------------------------------------------------------------------|
 ----------------------------------------------------0----------------|
 ----0----------------------------------------------------------------|
 ------------------------------------3--------------------------------|


Important: The song above is NOT stored on the Chordie server. The original song is hosted at www.guitaretab.com. Chordie works as a search engine and provides on-the-fly formatting. Chordie does not index songs against artists'/composers' will. To remove this song please click here.

Text color:
Chord color:
Chord grids: 
Font size:    
Page size: 

A# D Eb F Gm
Rate #3 of 3 versions

Login - add to songbook

SHARE PAGE  



You need to log in to post comments