Guitar Tabs, Chords and Lyrics
Major upgrade!! After one year development the new version of Chordie is now online! Please give feedback.


Air Dry   Teddy Geiger

 
 E-------------------------------------------|
 B-------------------------------------------|
 G-------------------------------------------|
 D-------------------------------------------|
 A---6---2---4---6---5---4-------------------|
 e----4---0---2---4---3---2------------------|

 


 


 Chorus * At end of chorus


 

 
 E---0---0-------------0---0-------|---0------|
 B---0---0-------------0---0-------|---0------|
 G---9---x---6---8----9---x---6--|---9--------|
 D---9---9---x---x----9---9---x--|---9--------|
 A---7---9---4---6----7---9---4--|---7--------|
 e----0---7-------------0---7------|---0------|

 


 


 Riffs


 [1] [2] [3]  

 
 E-6-6-6-6-6-7-7-7-|:-6-6-6-6-6-7-7-7-:--------|-6-7-6-6-6-6-7-----|
 B-----------------|:-----------------:-7h-9p7-|--7-----------8-7--|
 G-----------------|:-----------------:--------|-----------------8-|
 D-----------------|:-----------------:--------|-------------------|
 A-----------------|:-----------------:--------|-------------------|
 e-----------------|:-----------------:--------|-------------------|

 


 Riff 3 cont.


 

 
 E-7-6-7-6-7-6-7-6------------|
 B-----------------7---9-7----|
 G-------------------8--------|
 D----------------------------|
 A----------------------------|
 e----------------------------|

 


 


 Solo


 


 

 
 E-12-11-12-11-12-14-11----------11-14-11-------------------------------|
 B----------------------14-12-14---------14--12-11-12-11-14-------------|
 G---------------------------------------------------------11--13-11----|
 D-----------------------------------------------------------13------13-|
 A----------------------------------------------------------------------|
 e----------------------------------------------------------------------|


Important: The song above is NOT stored on the Chordie server. The original song is hosted at www.guitaretab.com. Chordie works as a search engine and provides on-the-fly formatting. Chordie does not index songs against artists'/composers' will. To remove this song please click here.

This song is displayed as text-only. Transposing and tuning is only available for chordpro-songs.
Rate #1 of 2 versions

Jango Player

Login - add to songbook

SHARE PAGE  




You need to log in to post comments