Guitar Tabs, Chords and Lyrics
Server problems seems to be fixed. Chordie has been experiencing problems with songs disappearing. These issues now seems to be fixed, but still verifying the fix. If you find anything strange, please email admin@chordie.com.


Ain't That Enough  Teenage Fanclub

 
 ---------------------------------------------------------------------------

Ain't That Enough ? Teenage Fanclub
 
 ---------------------------------------------------------------------------

Tabbed by: maguri
Tuning: Standard
Teenage Fanclub
Ain't That Enough
From: "Songs From Northern Britain" (1997)
Uplifting!
INTRO
[G] [C] [G] [C]  
 
 e|----------------|----------------|----------------|----------------|
 B|3---3-3---3-3/5-|5---5-5---5-5/7-|7---7-7---7-7/8-|8---8-8--/1010\-|
 G|----------------|----------------|----------------|----------------|
 D|----------------|----------------|----------------|----------------|
 A|5---5-5---5-5/7-|7---7-7---7-7/9-|9---9-9---9-9/10|10--1010?/1212\-|
 E|----------------|----------------|----------------|----------------|

[G] [C] [D] [D]  
 
 e|----------------|----------------|----------------|8-----7--\5-5---|
 B|3---3-3---3-3/5-|5---5-5---5-5/7-|7---7-7---7-7/8-|----------------|
 G|----------------|----------------|----------------|----------------|
 D|----------------|----------------|----------------|10----9--\7-7---|
 A|5---5-5---5-5/7-|7---7-7---7-7/9-|9---9-9---9-9/10|--------?-------|
 E|----------------|----------------|----------------|----------------|

Intro
Hey, [G]if you can I [C(add9)]wish you would
[G]Only if you [C(add9)]feel you should
[G]Bring your loving [C(add9)G]o- ver
[G]All wrapped up in [C(add9)]circumstance?
[G]All stood up with [C(add9)]taking stands?
[G]Bring your loving [C(add9)G]o- ver
[G]The high lights [C(add9)]glisten
[G]Silence [C(add9)]listens
The [Am]days that [Bm]found you
The [C]grace that [D]bound you
Here is a [G]sunri[Am]se, aint that [C]enough?
True as a [G]clear sk[Am]y, ain't that [D]enough?
[C]Toytown f[C/B]eelings h[Am]ere to remi[D]nd you[G] [G7]
[C]Summer's in the [C/B]city, [Am]do what you [D]gotta [G]do[D]
| G | C(add9) | G | C(add9) | G | C(add9) | D | D |
(Instrumental)
And [G]time can only [C(add9)]make demands
[G]Build it up with [C(add9)]grains of sand
[G]Bring your loving [C(add9)G]o- ver
[G]The high life's [C(add9)]missing
[G]Silent [C(add9)]glisten
[Am]The days t[Bm]hat found you
[C]The grace that [D]bound you
Here is a [G]sunri[Am]se, aint that [C]enough?
True as a [G]clear sk[Am]y, ain't that [D]enough?
[C]Toytown f[C/B]eelings h[Am]ere to remi[D(sus4)]nd you[G] [G7]
[C]Summer's in the [C/B]city, [Am]do what you [D]gotta [G]do[G7]
[C]Toytown f[C/B]eelings w[Am]ho's gonna a[D]rgue?[G] [G7]
[C]Summer's in the [C/B]city, [Am]summer's in the [D]city[G] [G7]
CODA
(3/4) | C | C/B | Am | D | G
(ritardando)
 
 ---------------------------------------------------------------------------

Chord voicings
Here are some suggestions for the chords. There is a lot of jangly "g" on top of many
too. Put it there, if possible . . .
e-B-G-D-A-E
 
 G 3-3-0-0-x-3-|
 C(add9) 3-3-0-x-3-x-|
 3-3-5-5-3-x-|
 C/B 0-1-0-x-2-x-|


Important: The song above is NOT stored on the Chordie server. The original song is hosted at www.guitaretab.com. Chordie works as a search engine and provides on-the-fly formatting. Chordie does not index songs against artists'/composers' will. To remove this song please click here.

Text color:
Chord color:
Chord grids: 
Font size:    
Page size: 

Am Bm C C(add9) C/B D D(sus4) G G7
Rate #1 of 2 versions

Login - add to songbook

SHARE PAGE  



You need to log in to post comments