Guitar Tabs, Chords and Lyrics
Major upgrade!! After one year development the new version of Chordie is now online! Please give feedback.


Maailma on sun  Tehosekoitin

 
 |-------0--0--------0--0--------0--0-----2--2--0-|
 |-------0--0--------0--0--------0--0-----3--3--0-|
 |-0--0--0--0--0--0--0--0--0--0--0--0--0--2--2--2-|
 |-2--2--2--2--2--2--2--2--2--2--2--2--2--0--0--0-|
 |-2--2--2--2--2--2--2--2--2--2--2--2--2--0--0--0-|
 |-0--0--0--0--0--0--0--0--0--0--0--0--0--0--0--0-|

[Em] [D] 
[Em] kasvaa vuosien [D]paino, meidät [Am]pian alleen muser[C]taa
[Em] käy jalkoihin tyly [D]asfaltti, unet [Am]ohuiksi kulut[C]taa
[C] jengi [G]pelaa vaan [Am]aikaa, niil on [C]liikaa mistä [G]valita[D]
[C] ei kukaan [G]huomaa et [Am]kaikki on selvää [C]jos vain osaa [G]katso[B7]a
[Em] anna tuulen [G]puhdis[D]taa
[Am] nostaa helmoja, [C]heittää hiukset [D]sekaisin
[Em] kevätmyrskyn [G]kastel[D]la
[Am] mekko liimata [C]kiinni varta[D]loosi
olet [C]kaunis, [D]kaunis, ja maailma on [Em]sun
Viulu kitaralla:
 
 |-3--2--0------------------------------------------------------|
 |----------3-----3---------------------------------------------|
 |-------------4----4--2-----2--4--2--0-----2--2-2--4--2--0-----|
 |---------------------------------------2------------------0-2-|
 |--------------------------------------------------------------|
 |--------------------------------------------------------------|

Kitara soittaa Em G D Am C D Em
C-osa: Em C G D

Important: The song above is NOT stored on the Chordie server. The original song is hosted at www.guitaretab.com. Chordie works as a search engine and provides on-the-fly formatting. Chordie does not index songs against artists'/composers' will. To remove this song please click here.

Text color:
Chord color:
Chord grids: 
Font size:    
Page size: 

Am B7 C D Em G
Rate #1 of 5 versions

Login - add to songbook

SHARE PAGE  




You need to log in to post comments