Guitar Tabs, Chords and Lyrics
Major upgrade!! After one year development the new version of Chordie is now online! Please give feedback.


The New Order   Testament

 
 ||-------------------------------------|-----------------------------------||
 ||-------------------------------------|-----------------------------------||
 ||*------------------------------------|-----------------------------------||
 ||*------------------------------------|---------3---3-(3)-----------------||
 ||--4---5---2-(2)----------------------|-4---5---1---1-(1)-----------------||
 ||--2---3---0-(0)----------------------|-2---3-------1-(1)-----------------||

 


 || ||


 || ||


 || ||


 ||[Lead #1] (Gtr.3) ||


 

 
 ||--7-3-0-0-12-7-0-0--7-3-0-0-12-7-0-0-|-----------------------------------||
 ||--|_|_|_|--|_|_|_|--|_|_|_|--|_|_|_|-|-----------------------------------||
 ||*----4--------4--------4--------4----|-----------------%-----------------||
 ||*------------------------------------|-----------------------------------||
 ||-------------------------------------|-----------------------------------||
 ||-------------------------------------|-----------------------------------||
 |--------------------------------------|------------------------------------|
 |--------------------------------------|------------------------------------|
 |--------------------------------------|------------------------------------|
 |--------------------------------------|---------3---3-(3)------------------|
 |---4---5---2-(2)----------------------|-4---5---1---1-(1)------------------|
 |---2---3---0-(0)----------------------|-2---3-------1-(1)------------------|

 


 | |


 | |


 | |


 

 
 |--9-6-0-0-12-9-0-0--9-6-0-0-12-9-0-0--|------------------------------------|
 |--|_|_|_|--|_|_|_|--|_|_|_|--|_|_|_|--|------------------------------------|
 |----4---------4--------4--------4-----|-----------------%------------------|
 |--------------------------------------|------------------------------------|
 |--------------------------------------|------------------------------------|
 |--------------------------------------|------------------------------------|
 |--------------------------------------|------------------------------------|
 |--------------------------------------|------------------------------------|
 |--------------------------------------|------------------------------------|
 |--------------------------------------|---------3(3)-3------3------3---3---|
 |--4---5---2------2------2------2------|-4---5---1(1)-1------1------1---1---|
 |--2---3---0------0------0------0------|-2---3---1(1)-1------1------1---1---|

 


 | ^ ^ ^ ^ ^ ^ |


 | |


 | |


 | --Begin accelerating-- |


 

 
 |-7-3-0-0-12-7-0-0-15-12-0-0-19-15-0-0-|-7-3-0-0-12-7-0-0-15-12-0-0-18-15---|
 |-|_|_|_|--|_|_|_|--|_|_|_|---|_|_|_|--|-|_|_|_|--|_|_|_|--|_|_|_|---|_|_---|
 |----4--------4--------4---------4-----|----4--------4--------4---------4---|
 |--------------------------------------|------------------------------------|
 |--------------------------------------|------------------------------------|
 |--------------------------------------|------------------------------------|
 |--------------------------------------|------------------------------------|
 |--------------------------------------|------------------------------------|
 |--------------------------------------|------------------------------------|
 |--------------------------------------|---------3(3)-3------3------3-------|
 |--4---5---2------2------2------2------|-4---5---1(1)-1------1------1-------|
 |--2---3---0------0------0------0------|-2---3---1(1)-1------1--------------|

 


 | ^ ^ ^ ^ ^ |


 | |


 | |


 | Con't |


 

 
 |-0-0-9-6-0-0-12-9-0-0-15-12-0-0-18-15-|-0-0-7-3-0-0-12-7-0-0-15-12-0-0-19--|
 |-|_|-|_|_|_|--|_|_|_|--|_|_|_|---|_|_-|_|_|-|_|_|_|--|_|_|_|--|_|_|_|_--|_-|
 |--------4--------4--------4----------4|--------4--------4--------4---------|
 |--------------------------------------|------------------------------------|
 |--------------------------------------|------------------------------------|
 |--------------------------------------|------------------------------------|

 


 


 


 Con't(**)


 

 
 |-15-0-0-------------------------------|-9-6-0-0-12-9-0-0-15-12-0-0-19-15-0-|
 |-_|_|_|-------------------------------|-|_|_|_|--|_|_|_|--|_|_|_|--|_|_|_|_|
 |-4----------------%-------------------|----4--------4--------4--------4----|
 |--------------------------------------|------------------------------------|
 |--------------------------------------|------------------------------------|
 |--------------------------------------|------------------------------------|

 


 


 (**) = Rhythm guitar continues over this but the gradual acceleration on


 lead made it difficult to space out; listen to the song for exact


 timing. This shouldn't be too confusing. I didn't want the rhythm


 guitar notes spaced to such an exaggerated extent for mere spacing


 purposes.


 


 

 
 |--------------------------------------||
 |--------------------------------------||
 |--------------------------------------||
 |-3-----3-----3-----3-----3-----3------||
 |-1-----1-----1-----1-----1-----1------||
 |-|______________|______________|------||

 


 | P.M.H. ||


 | ||


 | ||


 | Con't ||


 

 
 |-0-6-3-0-0-12-9-0-0-9-6-0-0-6-3-0-0---||
 |_|-|_|_|_|--|_|_|_|-|_|_|_|-|_|_|_|---||
 |------4--------4-------4-------4------||
 |--------------------------------------||
 |--------------------------------------||
 |--------------------------------------||

 


 


 [Fill 1] 


 

 
 ||-------------------------------------||
 ||-------------------------------------||
 ||-------------------------------------||[Gtrs.1&2]
 ||-------------------------------------||
 ||-1----2----1---------1------------2--||
 ||----------------3---------3---2---0--||

 


 


 


 [Rby.Fig.1] 


 

 
 ||-------------------------|-------------------------|-------------------------|
 ||-------------------------|-------------------------|-------------------------|
 ||*------------------------|-------------------------|-------------------------|[Gtrs.1&2]
 ||*----------------------3-|-3--333--3--3-------4----|-------6-----4-----3-----|
 ||---2--222--2--2-4/5-1-|-1--111--1--1--4/5--2----|-------4-----2-----1-----|
 ||---0--000--0--0-2/3---|---------------2/3-------|-0--0-----0-----0-----0--|

 


 . ... . . sl . . ... . . sl . . . . .


 


 _________ _________________________


 |1. |2. |


 

 
 |--------------------------|-------------------------||
 |--------------------------|-------------------------||
 |--------------------------|------------------------*||[Gtrs.1&2]
 |--3-3---------------------|------------------------*||
 |--1-1-1-2-1-----2---------|------7------------------||
 |------------3-2-0---------|-X-/--0------------------||

 


 sl


 


 [Rby.Fig.2] 


 

 
 ||------------------------------------------|------------------------------------|
 ||------------------------------------------|------------------------------------|
 ||*-9--------10--------9--------10----------|-9-------8---9--------10------------|[Gtrs.1&2]
 ||*-----------------------------------------|------------------------------------|
 ||--7--------8---------7--------8-----------|-7-------6---7--------8-------------|
 ||-----0--0------0--0-----0--0------0--0----|------0---------0--0------0--0------|

 


 . . . . . . . . . . . . .


 


 ___________________________________________ ____________________________________


 |1. |2. |


 

 
 |-------------------------------------------|------------------------------------||
 |------------------9--9_(10)--9-------------|------------------------------------||
 |--9--------9--10------tr--------10--9------|-9---------------------------------*||[Gtr.1]
 |-------------------------------------------|----------------6--6__(7)--6-------*||
 |--7----------------------------------------|-7--------7--8------tr--------8--7--||
 |-----0--0----------------------------------|----0--0----------------------------||

 


 . . . .


 


 ___________________________________________ ____________________________________


 |1. |2. |


 

 
 |------------------7--7__(8)--7-------------|------------------------------------||
 |-----------9--10------tr--------10--9------|------------------------------------||
 |--9----------------------------------------|-9--------------4--4__(5)--4-------*||[Gtr.2]
 |-------------------------------------------|----------6--7------tr--------7--6-*||
 |--7----------------------------------------|-7----------------------------------||
 |-----0--0----------------------------------|----0--0----------------------------||

 


 . . . .


 


 [Rby.Fig.2a] 


 

 
 ||-------------------------------------|--------------------------------------|
 ||-------------------------------------|--------------------------------------|
 ||*------------------------------------|--------------------------------------|[Gtrs.1&2]
 ||*-2--------3--------2--------3-------|-2------1---2--------3--------2-------|
 ||--2--------3--------2--------3-------|-2------1---2--------3--------2-------|
 ||-----0--0-----0--0-----0--0-----0--0-|-----0---------0--0-----0--0----------|

 


 . . . . . . . . . . . . .


 


 ______________________________________ ______________________________________


 |1. |2. |


 

 
 |--------------------------------------|--------------------------------------||
 |--------------------------------------|--------------------------------------||
 |---------------1--1___(2)--1----------|-------------------------------------*||[Gtr.1]
 |---------2--3-------tr--------3--2----|-------------------------------------*||
 |--------------------------------------|-------------0___2___0----------------||
 |---0--0-------------------------------|-0---0---4-----h---p-----4---1--------||

 


 . . . . . . .


 


 ______________________________________ ______________________________________


 |1. |2. |


 

 
 |--------------------------------------|--------------------------------------||
 |--------------------------------------|--------------------------------------||
 |---------------4--4___(5)--4----------|-------------------------------------*||[Gtr.2]
 |---------6--7-------tr--------7--6----|-------------------------------------*||
 |--------------------------------------|-------------0___2___0----------------||
 |---0--0-------------------------------|-0---0---4-----h---p-----4---1--------||

 


 . . . . . . .


 


 Repeat Rhy.Fig.2a [2x]


 


 [Fill 2] 


 

 
 ||------------------------|-------------------------||
 ||------------------------|-------------------------||
 ||------------------------|-------------------------||[Gtrs.1&2]
 ||-3--3--3--3--3--3--3--3-|-------------------------||
 ||-1--1--1--1--1--1--1--1-|-1--2--1-----1--------2--||
 ||-|_________|___________||----------3-----3--2--0--||

 


 P.M.H.


 


 Repeat Rhy.Fig.1 [1x]


 Repeat Rhy.Fig.2 + 1st ending [1x]


 


 [Fill 3] 


 

 
 ||---------------------------------------|---------------------------------------|
 ||---------------------------------------|---------------------------------------|
 ||*-9------------------9-----------------|-9------8---9--------10--------9-------|[Gtrs.1&2]
 ||*--------------------------------------|---------------------------------------|
 ||--7--------8~--------7--------8~-------|-7------6---7--------8---------7-------|
 ||-----0--0--ph-0--0------0--0--ph--0--0-|-----0---------0--0------0--0----------|

 


 . . . . . . . . . . . . .


 


 

 
 |----------------------------------------||
 |----------------------------------------||
 |--9------------------------------------*||[Gtr.1]
 |-----------------6--6__(7)--6----------*||
 |--7--------7--8------tr--------8--7-----||
 |-----0--0-------------------------------||

 


 | . . ||


 | ||


 

 
 |----------------------------------------||
 |----------------------------------------||
 |--9--------------4--4__(5)--4----------*||[Gtr.2]
 |-----------6--7------tr--------7--6----*||
 |--7-------------------------------------||
 |-----0--0-------------------------------||

 


 . .


 


 Repeat Rhy.Fig.2a [2x]


 Repeat Fill 2 [1x]


 


 [Rby.Fig.3] 


 

 
 ||--------------------------------|---------------------------------|
 ||--------------------------------|---------------------------------|
 ||*-------------------------------|---------------------------------|[Gtr.1]
 ||*-----------------4----------3--|----------------------------4----|
 ||--2---------------2----------1--|-------3---2----------------2----|
 ||--0---0--0--0--0--2----0--0--1--|-0--0--1---0----0--0--0--0--2----|

 


 || . . . . . . . . . . . . . |


 || |


 || |


 

 
 ||--------------------------------|---------------------------------|
 ||--------------------------------|---------------------------------|
 ||*-------------------------------|---------------------------------|[Gtr.2]
 ||*-------------------------------|----------------------------4----|
 ||--2-(2)-------------------------|-------3---2----------------2----|
 ||--0-(0)-------------------------|-------1---0----------------2----|

 


 .


 


 

 
 |---------------------------------||
 |---------------------------------||
 |--10--9-------------------------*||[Gtr.1]
 |---------10--9------------------*||
 |----------------12--11-----------||
 |------------------------13--12---||

 


 | ||


 | ||


 

 
 |---------------------------------||
 |--10--9--------------------------||
 |---------10--9------------------*||[Gtr.2]
 |----------------10--9-----------*||
 |------------------------12--11---||
 |---------------------------------||

 


 


 [Rby.Fig.3a] 


 

 
 ||---------------------------------------|---------------------------------------||
 ||---------------------------------------|---------------------------------------||
 ||*--------------------------------------|--------------------------------------*||[Gtrs.1&2]
 ||*------------------4------------3------|----------------------------4---------*||
 ||--2----------------2------------1------|-------3---2----------------2------3---||
 ||--0----0--0--0--0--2----0--0----1------|-0--0--1---0----0--0--0--0--2---0--1---||

 


 . . . . . . . . . . . . ^ .


 


 [Rby.Fig.3b] 


 

 
 ||--------------------------------|---------------------------------|
 ||--------------------------------|---------------------------------|
 ||--------------------------------|---------------------------------|[Gtrs.1&2]
 ||------------------4----------3--|----------------------------4----|
 ||-2----------------2----------1--|-------3---2----------------2----|
 ||-0----0--0--0--0-------0--0-----|-0--0--1---0----0--0--0--0--2----|

 


 . . . . . . . . . . . . . ^


 


 

 
 |---------------------------------||
 |---------------------------------||
 |--10--9-------------------------*||[Gtr.1]
 |---------10--9------------------*||
 |----------------12--11-----------||
 |------------------------13--12---||

 


 | ||


 | ||


 

 
 |---------------------------------||
 |--10--9--------------------------||
 |---------10--9------------------*||[Gtr.2]
 |----------------10--9-----------*||
 |------------------------12--11---||
 |---------------------------------||

 


 


 Repeat Rhy.Fig.3b [1x]


 


 [Fill 4] 


 

 
 |----------------------------------|---------------------------------|
 |----------------------------------|---------------------------------|
 |----------------------------------|-/9-(9)--------------------------|[Gtrs.1&2]
 |----------------------------------|---------------------------------|
 |--2-(2)---------------------------|-/7-(7)--------------------------|
 |--0-(0)---------------------------|sl-------------------------------|

 


 


 


 [Rby.Fig.4] 


 

 
 ||----------------------------------|----------------------------------||
 ||----------------------------------|----------------------------------||
 ||*---------------------------------|---------------------------------*||[Gtrs.1&2]
 ||*---------------------------------|---------------------------------*||
 ||--3-(3)-------------------------3-|-3-(3)------------------------3---||
 ||--1-(1)-------------------------1-|-1-(1)------------------------1---||

 


 . .


 


 Repeat Rhy.Fig.4 [1x]


 


 [Melody] (w/Rhy.Fig.4)


 

 
 ||----------------------------------------|----------------------------------------||
 ||-----910---9----------------------------|----910----9---------h------------------||
 ||*-10----10--109---9-10------------------|-10-----10---109----910---10-9~--------*||[Gtr.3]
 ||*--------------12------9-10-------------|-----------------12-----12---ph--------*||
 ||---------------------------10-11--------|----------------------------------------||
 ||---------------------------------12-13~-|----------------------------------------||

 


 || ||


 || ||


 

 
 ||----------------------------------------|----------------------------------------||
 ||----1213---12---------------------------|----1213---12--------h------------------||
 ||*-14----14---1413--13-14----------------|-14-----14---1413---1314--14-13~-------*||[Gtr.4]
 ||*----------------15-----14-15-----------|-----------------15-----15----ph-------*||
 ||-----------------------------14-15------|----------------------------------------||
 ||----------------------------------15-16~|----------------------------------------||

 


 


 Repeat Melody [1x]


 


 [Rby.Fig.5] 


 

 
 |------------------|------------------|------------------|------------------|
 |------------------|------------------|------------------|------------------|
 |------------------|------------------|--------%---------|------------------|[Gtrs.1&2]
 |------------------|------------------|------------------|------------------|
 |-2(2)---3-----2(2)|----3-----5(5)----|------------------|----3-------------|
 |-0(0)0--1--0--0(0)|-0--1--0--3(3)----|------------------|-0--1--0----------|

 


 | |__|__| |__|__| |__|__| |


 | P.M.H. P.M.H. P.M.H. |


 | |


 

 
 |------------------|------------------|------------------|------------------|
 |------------------|------------------|------------------|------------------|
 |------------------|------------------|--------%---------|------------------|[Gtrs.1&2]
 |------------------|------------------|------------------|------------------|
 |-2(2)---3-----2(2)|----3-----5(5)----|------------------|----3--2(2)-------|
 |-0(0)0--1--0--0(0)|-0--1--0--3(3)----|------------------|-0--1--0(0)-------|

 


 |__|__| |__|__| |__|__|


 P.M.H. P.M.H. P.M.H.


 


 [Rby.Fig.6] 


 

 
 |---------------------------------|----------------------------------|
 |---------------------------------|----------------------------------|
 |---------------------------------|----------------%-----------------|[Gtrs.1&2]
 |---------------------------------|----------------------------------|
 |-3--2-----------2--2-222-2--2--2-|----------------------------------|
 |-------0--3--2--0--0-000-0--0--0-|----------------------------------|

 


 | . . . . ... . . . |


 | |


 | |


 

 
 |---------------------------------|----------------------------------|
 |---------------------------------|----------------------------------|
 |---------------%-----------------|----------------------------------|[Gtrs.1&2]
 |---------------------------------|----------------------------------|
 |---------------------------------|-3--2-----------2-(2)-------------|
 |---------------------------------|-------0--3--2--0-(0)-------------|

 


 . . . . .


 


 [Rby.Fig.6a] 


 

 
 ||----------------------------------|------------------------------||
 ||----------------------------------|------------------------------||
 ||*---------------------------------|------------------------------||[Gtrs.1&2]
 ||*-----------4---------3-3-3-2-2-2-|-----------3------------------||
 ||--2---------2---------1-1-1-0-0-0-|-2---------1---------2--------||
 ||--0-------------------|____|____|-|-0-------------------0--------||

 


 P.M.H.


 


 

 
 |-----------------------------------||
 |-----------------------------------||
 |----------------------------------*||[Gtrs.1&2]
 |--4-------------------3-----------*||
 |--2-------------------1------------||
 |-----------------------------------||

 


 


 [Lead #1] (Gtr.3; w/Rhy.Fig.5 2x)


 

 
 |--------------------------------------|-------------------------------15_19-|
 |--15fb~--------15fb~------------------|----------------------------17---h---|
 |--------------------------------------|-------------------------16----------|
 |--------------------------------------|----------------------17-------------|
 |--------------------------------------|-------------------19----------------|
 |--------------------------------------|-------------------------------------|
 | -------Sweep------|

 


 | |


 | |


 | |


 

 
 |--15----------------------15_19-18-17-|-15-------15fb_____r~-----/15_12-----|
 |-----17----------------17---h---------|----17-15----------------sl--p---13--|
 |--------16----------16----------------|-------------------------------------|
 |-----------17----17-------------------|-------------------------------------|
 |--------------19----------------------|-------------------------------------|
 |--------------------------------------|-------------------------------------|
 ---------Up and down sweeping---------
 |-----------------------------17_12----|----------------------------14hb___r_|
 |--------------------------13---p---13-|-------------------------12----------|
 |--12-------------------12-------------|-12-------------------12-------------|
 |-----14-------------14----------------|----14-------------14----------------|
 |--------15-------15-------------------|-------15-------14-------------------|
 |-----------12_15----------------------|----------12_15----------------------|

 


 | h h |


 | |


 | |


 | |


 

 
 |___12--------12-----------------------|-------------------------------------|
 |--p---15fb~-----15_12-----------------|-------------------------------------|
 |-------------------------------p------|-------/9--h-----------p---12--------|
 |--------------------------------------|------sl-----------------------------|
 |--------------------------------------|-------------------------------------|
 |--------------------------------------|-------------------------------------|
 |--------------------------------------|-------------------------------------|
 |-----------9---------------9_11-12----|-1112-14-14_12-11\9_11-12-11_12-14---|
 |---9_10-12---12_10-9_10-12--h---------|--h--------p----sl-h--------h--------|
 |----h----------p----h-----------------|-------------------------------------|
 |--------------------------------------|-------------------------------------|

 


 | |


 | |


 | |


 

 
 |---/15-15_12----12-14-15-15fb~--------|-------------------------------------|
 |--sl-----p---12-----------------------|-19hb___r__17----17--------17-19-20--|
 |--------------------------------------|----------p---19----19fb~------------|
 |--------------------------------------|-------------------------------------|
 |--------------------------------------|-------------------------------------|
 |--------------------------------------|-------------------------------------|
 |--------------------------------------|------------------------------15_19--|
 |--19-17-19-17-15-17-15-13-19hb____r___|_17-----17-----------------17---h----|
 |------------------------------------p-|-----19----19fb---------16-----------|
 |--------------------------------------|---------------------17--------------|
 |--------------------------------------|------------------19-----------------|
 |--------------------------------------|-------------------------------------|
 | -------Sweep------|

 


 | |


 | |


 

 
 |--15---15_20-15-----------------------|-------------------------------------|
 |-----X---h------17----------19hb~__r__|17----17-----------------------------|
 |-------------------16----------------p|---19----19fb~-----------------------|
 |----------------------17--------------|-------------------------------------|
 |-------------------------19-----------|-------------------------------------|
 |--------------------------------------|-------------------12-14-15-14_15-17-|

 


 h


 


 

 
 |--------------------------------------|-------------------------------------|
 |--------------------19hb___r__17--17--|-------------17fb~-------19fb~-------|
 |-----------------------------p--19----|-19fb~-------------------------------|
 |--14_16-17-16-17-19-------------------|-------------------------------------|
 |----h---------------------------------|-------------------------------------|
 |--------------------------------------|-------------------------------------|

 


 | |


 | |


 | |


 

 
 |--------------------19_15----15-------|-19_15----15-------19_15----15-------|
 |____________r-19~-----p---17----17----|---p---17----17------p---17----17----|
 |-----------------------------------16-|----------------16-------------------|
 |--------------------------------------|-------------------------------------|
 |--------------------------------------|-------------------------------------|
 |--------------------------------------|-------------------------------------|
 |-----19_15----15-------20_17----17----|---20_17----17-------20_17----17-----|
 |-------p---17----17------p---19----19_|16---p---19----19_16---p---19--------|
 |--16----------------16---------------p|-----------------p-------------------|
 |--------------------------------------|-------------------------------------|
 |--------------------------------------|-------------------------------------|
 |--------------------------------------|-------------------------------------|

 


 | |


 | |


 | |


 

 
 |--------20_17----17-------19_15----15-|-------19_15----15-------19_15-------|
 |--19_16---p---19----19_16---p---17----|-17------p---17----17------p---17----|
 |----p-----------------p---------------|----16----------------16-------------|
 |--------------------------------------|-------------------------------------|
 |--------------------------------------|-------------------------------------|
 |--------------------------------------|-------------------------------------|
 |--15-------19_15----15-------17_14----|-14----------------------------------|
 |-----17------p---17----17------p---16-|----16-13-16_13----13----------------|
 |--------16----------------16----------|------------p---14----14-11-14_11----|
 |--------------------------------------|------------------------------p------|
 |--------------------------------------|-------------------------------------|
 |--------------------------------------|-------------------------------------|

 


 | |


 | |


 | |


 

 
 |--------------------------------------|
 |--------------------------------------|
 |-----11------------------------11___\-|
 |--13----13-10-13_10----10------10___\-|
 |----------------p---12----12-9--9___\-|
 |-----------------------------------sl-|

 


 


 Repeat Fill 1 [1x]


 Repeat Rhy.Fig.1 [1x]


 Repeat Rhy.Fig.2 + 1st Ending [1x]


 Repeat Fill 3 [1x]


 Repeat Rhy.Fig.2a [2x]


 Repeat Fill 1 [1x]


 Repeat Rhy.Fig.1 [1.75x]


 


 [Fill 5] 


 

 
 ||------------------------|------------------------|------------------------|
 ||------------------------|------------------------|------------------------|
 ||*-----------------------|------------------------|------------------------|[Gtrs.1&2]
 ||*----6-----4-----3------|-3/4--6-----4-----3-----|-3/4--6-----4-----3-----|
 ||-----4-----2-----1------|-1/2--4-----2-----1-----|-1/2--4-----2-----1-----|
 ||--0-----0-----0-----0---|-sl------0-----0-----0--|-sl------0-----0--------|

 


 . . . . . . . . .


 


 

 
 |-------------------------|------------------------|------------------------||
 |-------------------------|------------------------|------------------------||
 |------------------4-4----|-(4)--------------------|------------%----------*||[Gtrs.1&2]
 |--------------2---4-4----|-(4)--------------------|-----------------------*||
 |--1-1-2-1-----2---2-2----|-(2)--------------------|------------------------||
 |--|__|__|-3-2-0---2-2----|-(2)--------------------|------------------------||


Important: The song above is NOT stored on the Chordie server. The original song is hosted at www.guitaretab.com. Chordie works as a search engine and provides on-the-fly formatting. Chordie does not index songs against artists'/composers' will. To remove this song please click here.

This song is displayed as text-only. Transposing and tuning is only available for chordpro-songs.
Rate #3 of 9 versions

Jango Player

Login - add to songbook

SHARE PAGE  




You need to log in to post comments