Guitar Tabs, Chords and Lyrics
Server problems seems to be fixed. Chordie has been experiencing problems with songs disappearing. These issues now seems to be fixed, but still verifying the fix. If you find anything strange, please email admin@chordie.com.


Envy Life  Testament

As recorded by Testament
(From the 1989 Album PRACTICE WHAT YOU PREACH)
Transcribed by S. Fly Buss
Music by Testament
Gtr I (E A D G B E) - 'Untitled'
Gtr II (E A D G B E) - 'Untitled'
Intro
Q=140
F#5/C# N.C. C#5/B5/F#
[4/4] Gtr I
PM PM----|
H H +H. Q E E S S E E E E E S S E E E E E Q
 
 |-----------|-----------------||--------------------|------------------|
 |-----------|-----------------||o-------------------|------------------|
 |-----------|-----------------||------------2-5-----|-----------6---4--|
 |-----------|-----------------||----4-4p2---------4-|-4p2-------6---4--|
 |------9----|-(9)-------------||o---------3---------|-----3-----4---2--|
 |------9----|-(9)------/12\---||--2-----------------|-------2-0-4-2-2--|

|
| Gtr II
 
 | PM--------|

| H H +H. E E E E S S E E E E E S S E E E E E Q
 
 |-----------|-----------------||--------------------|------------------|
 |-----------|-----------------||o-------------4-----|------------------|
 |-----------|---------------2-||--4-4-------5-----4-|-----------6---4--|
 |------4----|-(4)-----------2-||--4-4-4-2---------4-|-4p2-------6---4--|
 |------4----|-(4)-------/7\---||o---------3---------|-----3-----4---2--|
 |-----------|-----------------||--------------------|-------2-0-4-2-2--|

1.
N.C.
E E S S E E E E E S S E E E Q +E. S
 
 |-------------------|---------------------||
 |-------------------|--------------------o||
 |-----------2-5-----|---------------------||
 |---4-4p2---------4-|-4p2---4-3-2--(2)-0--||
 |---------3---------|-----3--------------o||
 |-2-----------------|---------------------||

|
| E E S S E E E E E S S E E E H
 
 |-------------------|---------------------||
 |-------------4-----|--------------------o||
 |-4-4-------5-----4-|---------------------||
 |-4-4-4-2---------4-|-4p2---7-6-5---------||
 |---------3---------|-----3--------------o||
 |---------------2---|---------------------||

2.
[E5F#F5] [E5] [G5/D] 
[2/4] S S E E E [4/4] W +H +E E Q
 
 |-----------||----------|-------------------|
 |-----------||----------|-------------------|
 |-----------||----------|-------------------|
 |-4p2-------||-2--------|-(2)----(2)-2-5\---|
 |-----2-4-3-||-2--------|-(2)----(2)-2-5\---|
 |-----0-2-1-||-0--------|-(0)----(0)--------|

|
| S S E E E W W
 
 |-----------||----------|-------------------|
 |-----------||----------|-------------------|
 |-----------||----------|--x\---------------|
 |-4p2-------||-2--------|--x\---------------|
 |-----2-4-3-||-2--------|-------------------|
 |-----0-2-1-||-0--------|-------------------|

[E5] [G5E5F#G5] [E5] [G5E5F#G5] [E5]  
 
 PM----------|

[E] [E] [E] [E] [E] [E] [E] [E] [+E] [E] [E] [E] [E] [E] [E] [E] [+E] [E] [E] [E] [E] [E] [E] [E] [E] [E] [E] [E] [E] [E] [E] [E]  
 
 |-----------------|-------------------|-------------------|-----------------||
 |-----------------|-------------------|-------------------|-----------------||
 |-----------------|-------------------|-------------------|-----------------||
 |-----------------|-------------------|-------------------|-----------------||
 |-2-2-2-2-------5-|-(5)-3-1-3-1-----2-|-(2)-2-2-2-------2-|---4-5-1-5-3-1-2-||
 |-0-0-3-0-2-3-0---|-------------5-3-0-|-(0)-0-3-0-2-3-0-0-|---------------0-||

|
 
 | PM----------|

| E E E E E E E E +E E E E E E E E +E E E E E E E E E E E E E E E E
 
 |-----------------|-------------------|-------------------|-----------------||
 |-----------------|-------------------|-------------------|-----------------||
 |-----------------|-------------------|-------------------|-----------------||
 |-----------------|-------------------|-------------------|-----------------||
 |-2-2-5---4s5-----|-----------------2-|-(2)-2-5-2-4s5---2-|---------------2-||
 |-0-0-3-0-2s3-0-6-|-(6)-5-3-5-3-2-1-0-|-(0)-0-3-0-2s3-0-0-|---5-6-3-6-5-3-0-||

Verse
$
[E5G5] [F#G5] [E5] 
[+E] [E] [E] [E] [E] [E] [E] [E] [+E] [E] [E] [E] [E] [E] [E] [E]  
 
 ||--------------------|-------------------|
 ||o-------------------|-------------------|
 ||--------------------|-------------------|
 ||--------------------|-------------------|
 ||o-(2)-2-2---------5-|-(5)-3-1-3-1-----2-|
 ||--(0)-0-3-0-2-3-0---|-------------5-3-0-|

|
| +E E E E E E E E +E E E E E E E E
 
 ||--------------------|-------------------|
 ||o-------------------|-------------------|
 ||--------------------|-------------------|
 ||--------------------|-------------------|
 ||o-(2)-2-5---4s5-----|-----------------2-|
 ||--(0)-0-3-0-2s3-0-6-|-(6)-5-3-5-3-2-1-0-|

[G5E5F#G5] [E5]  
 
 PM----------|

[+E] [E] [E] [E] [E] [E] [E] [E] [E] [E] [E] [E] [E] [E] [E] [E]  
 
 |-------------------|------------------|
 |-------------------|------------------|
 |-------------------|------------------|
 |-------------------|------------------|
 |-(2)-2-5-2-4s5-----|---------------2--|
 |-(0)-0-3-0-2s3-0-6-|---5-3-5-3-2-1-0--|

|
 
 | PM----------|

| +E E E E E E E E E E E E E E E E
 
 |-------------------|------------------|
 |-------------------|------------------|
 |-------------------|------------------|
 |-------------------|------------------|
 |-(2)-2-5-2-4s5-----|---------------2--|
 |-(0)-0-3-0-2s3-0-6-|---5-3-5-3-2-1-0--|

[E5G5] [F#G5] [E5] [G5E5F#G5] [E5]  
 
 PM----------|

[+E] [E] [E] [E] [E] [E] [E] [E] [+E] [E] [E] [E] [E] [E] [E] [E] [+E] [E] [E] [E] [E] [E] [E] [E] [E] [E] [E] [E] [E] [E] [E] [E]  
 
 |-------------------|-------------------|-------------------|-----------------|
 |-------------------|-------------------|-------------------|-----------------|
 |-------------------|-------------------|-------------------|-----------------|
 |-------------------|-------------------|-------------------|-----------------|
 |-(2)-2-2-2-------5-|-(5)-3-1-3-1-----2-|-(2)-2-2-2-------2-|---4-5-1-5-3-1-2-|
 |-(0)-0-3-0-2-3-0---|-------------5-3-0-|-(0)-0-3-0-2-3-0-0-|---------------0-|

|
 
 | PM----------|

| +E E E E E E E E +E E E E E E E E +E E E E E E E E E E E E E E E E
 
 |-------------------|-------------------|-------------------|-----------------|
 |-------------------|-------------------|-------------------|-----------------|
 |-------------------|-------------------|-------------------|-----------------|
 |-------------------|-------------------|-------------------|-----------------|
 |-(2)-2-5---4s5-----|-----------------2-|-(2)-2-5-2-4s5---2-|---------------2-|
 |-(0)-0-3-0-2s3-0-6-|-(6)-5-3-5-3-2-1-0-|-(0)-0-3-0-2s3-0-0-|---5-6-3-6-5-3-0-|

[E5G5] [F#G5] [E5] [G5E5F#G5] [E5]  
 
 PM----------|

[+E] [E] [E] [E] [E] [E] [E] [E] [+E] [E] [E] [E] [E] [E] [E] [E] [+E] [E] [E] [E] [E] [E] [E] [E] [E] [E] [E] [E] [E] [E] [E] [E]  
 
 |-------------------|-------------------|-------------------|-----------------|
 |-------------------|-------------------|-------------------|-----------------|
 |-------------------|-------------------|-------------------|-----------------|
 |-------------------|-------------------|-------------------|-----------------|
 |-(2)-2-2---------5-|-(5)-3-1-3-1-----2-|-(2)-2-5-2-4s5-----|---------------2-|
 |-(0)-0-3-0-2-3-0---|-------------5-3-0-|-(0)-0-3-0-2s3-0-6-|---5-3-5-3-2-1-0-|

|
 
 | PM----------|

| +E E E E E E E E +E E E E E E E E +E E E E E E E E E E E E E E E E
 
 |-------------------|-------------------|-------------------|-----------------|
 |-------------------|-------------------|-------------------|-----------------|
 |-------------------|-------------------|-------------------|-----------------|
 |-------------------|-------------------|-------------------|-----------------|
 |-(2)-2-5---4s5-----|-----------------2-|-(2)-2-5-2-4s5-----|---------------2-|
 |-(0)-0-3-0-2s3-0-6-|-(6)-5-3-5-3-2-1-0-|-(0)-0-3-0-2s3-0-6-|---5-3-5-3-2-1-0-|

[E5G5] [F#G5] [E5] [G5E5F#G5] [E5]  
 
 PM----------|

[+E] [E] [E] [E] [E] [E] [E] [E] [+E] [E] [E] [E] [E] [E] [E] [E] [+E] [E] [E] [E] [E] [E] [E] [E] [E] [E] [E] [E] [E] [E] [E] [E]  
 
 |-------------------|-------------------|-------------------|-----------------||
 |-------------------|-------------------|-------------------|-----------------||
 |-------------------|-------------------|-------------------|-----------------||
 |-------------------|-------------------|-------------------|-----------------||
 |-(2)-2-2-2-------5-|-(5)-3-1-3-1-----2-|-(2)-2-2-2-------2-|---4-5-1-5-3-1-2-||
 |-(0)-0-3-0-2-3-0---|-------------5-3-0-|-(0)-0-3-0-2-3-0-0-|---------------0-||

|
 
 | PM----------|

| +E E E E E E E E +E E E E E E E E +E E E E E E E E E E E E E E E E
 
 |-------------------|-------------------|-------------------|-----------------||
 |-------------------|-------------------|-------------------|-----------------||
 |-------------------|-------------------|-------------------|-----------------||
 |-------------------|-------------------|-------------------|-----------------||
 |-(2)-2-5---4s5-----|-----------------2-|-(2)-2-5-2-4s5---2-|---------------2-||
 |-(0)-0-3-0-2s3-0-6-|-(6)-5-3-5-3-2-1-0-|-(0)-0-3-0-2s3-0-0-|---5-6-3-6-5-3-0-||

Chorus
[B5] [Bb5/F] [Bb5] [B5] [Bb5] [E5]  
 
 PM----------| PM--|

E E E E E E E E +E E E E E E Q E E E E E Q E H E E E E
 
 |-----------------|------------------|----------------|--------------|
 |-----------------|------------------|----------------|--------------|
 |-----------------|------------------|----------------|--------------|
 |-4-4-4-4-4-4-4-3-|-(3)-3-3----------|-4-4-4-4-4-4--3-|--------------|
 |-2-2-2-2-2-2-2-1-|-(1)-1-1-1-3-2-1--|-2-2-2-2-2-2--1-|------------2-|
 |---------------1-|-(1)--------------|----------------|--------0-0-0-|

|
 
 | PM----------| PM--|

| E E E E E E E E +E E E E E E Q E E E E E Q E H E E E E
 
 |-----------------|------------------|----------------|--------------|
 |-----------------|------------------|----------------|--------------|
 |-----------------|------------------|----------------|--------------|
 |-4-4-4-4-4-4-4-3-|-(3)-3-3----------|-4-4-4-4-4-4--3-|--------------|
 |-2-2-2-2-2-2-2-1-|-(1)-1-1----------|-2-2-2-2-2-2--1-|------------2-|
 |-----------------|---------0-5-4-3--|----------------|--------0-0-0-|

1.
To Coda
[B5] [Bb5/F] [Bb5] [B5] [Bb5] [E5]  
 
 PM----------| PM--|

E E E E E E E E +E E E E E E Q E E E E E Q E H E E E E
 
 |-----------------|------------------|----------------|---------------||
 |-----------------|------------------|----------------|--------------o||
 |-----------------|------------------|----------------|---------------||
 |-4-4-4-4-4-4-4-3-|-(3)-3-3----------|-4-4-4-4-4-4--3-|---------------||
 |-2-2-2-2-2-2-2-1-|-(1)-1-1-1-3-2-1--|-2-2-2-2-2-2--1-|------------2-o||
 |---------------1-|-(1)--------------|----------------|--------0-0-0--||

|
 
 | PM----------| PM--|

| E E E E E E E E +E E E E E E Q E E E E E Q E H E E E E
 
 |-----------------|------------------|----------------|---------------||
 |-----------------|------------------|----------------|--------------o||
 |-----------------|------------------|----------------|---------------||
 |-4-4-4-4-4-4-4-3-|-(3)-3-3----------|-4-4-4-4-4-4--3-|---------------||
 |-2-2-2-2-2-2-2-1-|-(1)-1-1----------|-2-2-2-2-2-2--1-|------------2-o||
 |-----------------|---------0-5-4-3--|----------------|--------0-0-0--||

2.
N.C. (E5) (E) (E5) (E)
Gtrs I, II
E E E E S S E E E E E E E E E E E E E E E E E E E E E E E E E E E
 
 |-------------------|-----------------|-----------------|-----------------|
 |-------------------|-----------------|-----------------|-----------------|
 |-------0-2p0-----2-|-----------------|-----------------|-----------------|
 |---2-3-2-3p2-3-3-3-|-2-----2---2-----|-2-----2---2-----|-2-----2---2-----|
 |---3-5-------5-5---|-------------1-0-|-------------1---|-------------1---|
 |-------------------|---0-0---0-------|---0-0---0-----3-|---0-0---0-----3-|

N.C. (E5) (E)
E E E E S S S S E E E E E E E E E E E E E E E E E E
 
 |---------------------||------------------|-----------------|
 |---------------------||o-----------------|-----------------|
 |-------0-2p0-2p0-----||------------------|-----------------|
 |-0-2-3-2-3p2-3p2-3-2-||--2-----2---2-----|-2-----2---2-----|
 |-1-3-5-----------5-2-||o-------------1-0-|-------------1---|
 |---------------------||----0-0---0-------|---0-0---0-----3-|

(E5) (E) N.C.
E E E E E E E E E E E E S S S S E E 3x
 
 |-----------------|------------------------||
 |-----------------|-----------------------o||
 |-----------------|-------0-2p0-2p0--------||
 |-2-----2---2-----|-0-2-3-2-3p2-3p2-3-2----||
 |-------------1---|-1-3-5-----------5-2---o||
 |---0-0---0-----3-|------------------------||

Bridge
D5 F5 N.C. D5 F5 N.C.
|-3-| |-3-|
H H E E S S S E E E Q H H E E S S S E E E Q
 
 |------------|--------------------|------------|--------------------|
 |------------|-------------1-4----|------------|-------------1-4----|
 |------------|-------------2-5----|------------|-------------2-5----|
 |-7----10----|---4-2h4p2-------4--|-7----10----|---4-2-4-2-------4--|
 |-5-----8----|-----------4--------|-5-----8----|-----------4--------|
 |------------|-2------------------|------------|-2------------------|

D5 F5 N.C. E5 D5 C#5
|-3-|
H H E E S S S E E E Q H H E E E E Q Q
 
 |------------|--------------------|-----------|-----------------||
 |------------|-------------1-4----|-----------|-----------------||
 |------------|-------------2-5----|-----------|-----------------||
 |-7----10----|---4-2h4p2-------4--|-9----7----|-6-6-6-6-6-------||
 |-5-----8----|-----------4--------|-7----5----|-4-4-4-4-4-------||
 |------------|-2------------------|-----------|-----------------||

N.C. C#5/B5/F#N.C.
Gtr I
PM PM----|
E E S S E E E E E S S E E E E E Q
 
 ||--------------------|------------------|
 ||o-------------------|------------------|
 ||------------2-5-----|-----------6---4--|
 ||----4-4p2---------4-|-4p2-------6---4--|
 ||o---------3---------|-----3-----4---2--|
 ||--2-----------------|-------2-0-4-2-2--|

|
| Gtr II
 
 | PM--------|

| E E S S E E E E E S S E E E E E Q
 
 ||--------------------|------------------|
 ||o-------------4-----|------------------|
 ||--4-4-------5-----4-|-----------6---4--|
 ||--4-4-4-2---------4-|-4p2-------6---4--|
 ||o---------3---------|-----3-----4---2--|
 ||--------------------|-------2-0-4-2-2--|

1.
E E S S E E E E E S S E E E Q +E. S
 
 |-------------------|----------------------||
 |-------------------|---------------------o||
 |-----------2-5-----|----------------------||
 |---4-4p2---------4-|-4p2---4-3-2--(2)-0---||
 |---------3---------|-----3---------------o||
 |-2-----------------|----------------------||

|
| E E S S E E E E E S S E E E H
 
 |-------------------|----------------------||
 |-------------4-----|---------------------o||
 |-4-4-------5-----4-|----------------------||
 |-4-4-4-2---------4-|-4p2---7-6-5----------||
 |---------3---------|-----3---------------o||
 |---------------2---|----------------------||

2.
[E5F#F5] [E5] [G5/D] 
[2/4] S S E E E [4/4] W +H +E E Q
 
 |-----------||----------|------------------|
 |-----------||----------|------------------|
 |-----------||----------|------------------|
 |-4p2-------||-2--------|-(2)----(2)-2-5\--|
 |-----2-4-3-||-2--------|-(2)----(2)-2-5\--|
 |-----0-2-1-||-0--------|-(0)----(0)-------|

|
| S S E E E W W
 
 |-----------||----------|------------------|
 |-----------||----------|------------------|
 |-----------||----------|--x\--------------|
 |-4p2-------||-2--------|--x\--------------|
 |-----2-4-3-||-2--------|------------------|
 |-----0-2-1-||-0--------|------------------|

Guitar Solo
[E5]~~~~[G5]~~~~[F#G5]~~~~~~~~~~~~~~~~~~~~~~~~[E5]
W +H +Q. E
 
 |-----------------|---------------------|
 |-----------------|---------------------|
 |-7---------------|-(7)-------(7)-----7-|
 |-----------------|---------------------|
 |-----------------|---------------------|
 |-----------------|---------------------|

|
| E E E E E E E E +E E E E E E E E
 
 |-----------------|---------------------|
 |-----------------|---------------------|
 |-----------------|---------------------|
 |-----------------|---------------------|
 |-2-2-5---4s5-----|-------------------2-|
 |-0-0-3-0-2s3-0-6-|-(6)-5-3-5--3--2-1-0-|

~~~[G5] [F#G5] [E5]
+W E E E E E E E E
 
 |-------------------|--------------------|
 |-------------------|-5s8-8s11-11s10-8s5-|
 |-(7)---------------|--------------------|
 |-------------------|-2s5-5s=8--8s=7-5s2-|
 |-------------------|--------------------|
 |-------------------|--------------------|

|
| +E E E E E E E E H E E E E
 
 |-------------------|--------------------|
 |-------------------|--------------------|
 |-------------------|--------------------|
 |-------------------|--------------------|
 |-(2)-2-5---4s5---2-|--------------------|
 |-(0)-0-3-0-2s3-0-0-|--------------0---0-|

[E5]+Q [G5]E E [F#G5]Q E E +Q E E E E E [E5] E
 
 |-----------7s==10----|------------------------|
 |-(5)s==8----------11-|-(11)---10s8s11s10s8----|
 |-----------4s===7----|---------------------/9-|
 |-(2)s==5-----------8-|--(8)----7s5s=8s=7s5----|
 |---------------------|---------------------/7-|
 |---------------------|------------------------|

|
| E E E E E E E E +E E E E E E E E
 
 |---------------------|------------------------|
 |---------------------|------------------------|
 |---------------------|------------------------|
 |---------------------|------------------------|
 |--2--2-5---4s5-------|----------------------2-|
 |--0--0-3-0-2s3--0--6-|--(6)-5--3-5--3--2-1--0-|

Q [G5] E [E5F#5G5]E E E E E +Q E E E E E [E5] E
 
 |------------------12----|--------------------------|
 |------------11s12----10-|-(10)---10s8-10s11-12-11s=|
 |--9----12----------9----|--------------------------|
 |-------------8s=9-----7-|--(7)----7s5--7s=8--9--8s=|
 |--7----10---------------|--------------------------|
 |------------------------|--------------------------|

|
 
 | PM--------------|

| +E E E E E E E E E E E E E E E E
 
 |------------------------|--------------------------|
 |------------------------|--------------------------|
 |------------------------|--------------------------|
 |------------------------|--------------------------|
 |-(2)-2--5-2--4s=5-------|-----------------------2--|
 |-(0)-0--3-0--2s=3--0--6-|------5--3-5--3--2--1--0--|

E [E5] E [G5] E. S [F#5G5] E E E E
 
 |-----------------------------|
 |-12s=15\-11----11s12s11-10-8-|
 |-----------------------------|
 |--9s=12\--8-----8s=9s=8--7-5-|
 |-----------------------------|
 |-----------------------------|

|
| +E E E E E E E E
 
 |-----------------------------|
 |-----------------------------|
 |-----------------------------|
 |-----------------------------|
 |-(2)--2---5--------4s=5------|
 |-(0)--0---3--0-----2s=3--0-6-|

E E E E +Q E [E5] E +E E [G5E5F#G5]E E E E E S S
 
 |------------------------|--------------------------|
 |-11s=10-8---------------|--------------------------|
 |----------9-(9)\-----12-|-(12)s9-9-7-7-9---/10-10--|
 |--8s==7-5---------------|--------------------------|
 |----------7-(7)\-----10-|-(10)s7-7-5-5-7-----------|
 |------------------------|--------------------------|

|
| +E E E E E E E E +E E E E E E E E
 
 |------------------------|--------------------------|
 |------------------------|--------------------------|
 |------------------------|--------------------------|
 |------------------------|--------------------------|
 |----------------------2-|--(2)-2-5-2-4s5-----------|
 |-(6)--5-3-5--3---2-1--0-|--(0)-0-3-0-2s3-0---6-----|

[E5]  
 
 |----5-----| |------6-------| |------6-------| |------6-------|

S S S S S S S S S S S S S S S S S S S S S S S
 
 |--------------------------------------------------------------------|
 |--------------------------------------------------------------------|
 |---------9-10----------10-11-13----------11-12-14----------12-13-15-|
 |-9-10-12------10-11-13----------11-12-14----------12-13-15----------|
 |--------------------------------------------------------------------|
 |--------------------------------------------------------------------|

|
| H E E E E
 
 |--------------------------------------------------------------------|
 |--------------------------------------------------------------------|
 |--------------------------------------------------------------------|
 |--------------------------------------------------------------------|
 |------------------------------------------------------------2-------|
 |------------------------------------------0--------0--------0-------|

[G5] [F#5] [G5]  
 
 |------6-------| |------6-------| |------6-------| |------6-------|

S S S S S S S S S S S S S S S S S S S S S S S S
 
 |---------------------------------------------------------------------------|
 |---------------------------------------------------------------------------|
 |----------11-12-14----------12-13-15----------11-12-14----------12-13-15---|
 |-11-12-14----------12-13-15----------11-12-14----------12-13-12------------|
 |---------------------------------------------------------------------------|
 |---------------------------------------------------------------------------|

|
| E E E E E E E E
 
 |---------------------------------------------------------------------------|
 |---------------------------------------------------------------------------|
 |---------------------------------------------------------------------------|
 |---------------------------------------------------------------------------|
 |--2--------2--------5-----------------4s=======5---------------------------|
 |--0--------0--------3--------0--------2s=======3--------0--------6---------|

[E5]  
 
 |-------6-------| |--3--| |--3--|

S S S S S S S S S S S S S S S S S S S S
 
 |--------------------------------------------------------------|
 |--------------------------------------------------------------|
 |-----------13-14-16----------13-16-------13h16p13-------14-17-|
 |-13--14-16----------13-14-16-------15-16----------15-16-------|
 |--------------------------------------------------------------|
 |--------------------------------------------------------------|

|
| +E E E E E E E E
 
 |--------------------------------------------------------------|
 |--------------------------------------------------------------|
 |--------------------------------------------------------------|
 |--------------------------------------------------------------|
 |---------------------------------------------------------2----|
 |-(6)--------5--------3--------5-----3-----2--------1-----0----|

|--3--|[G5] [F#5] [G5] [E5]
S S S S S S S S S S S S S S S S S
 
 |------------------------------------------------------|
 |-----------------------12-15-------13-16-------14-17--|
 |--------15-18-15-12-14-------13h15-------14-16--------|
 |-15h=16-----------------------------------------------|
 |------------------------------------------------------|
 |------------------------------------------------------|

|
| +E E E E E E E E
 
 |------------------------------------------------------|
 |------------------------------------------------------|
 |------------------------------------------------------|
 |------------------------------------------------------|
 |-(2)-----2--------5-----------4s====5-----------2-----|
 |-(0)-----0--------3-----0-----2s====3-----0-----0-----|

|--3--|[E5]
S S S S S S S S S S S S S E E
 
 |--------------------------------------------------|
 |-------15-18-------15h18p15----16-19-16-16-20b23==|
 |-15h17-------15-17----------18--------------------|
 |--------------------------------------------------|
 |--------------------------------------------------|
 |--------------------------------------------------|

|
| H E E E E
 
 |--------------------------------------------------|
 |--------------------------------------------------|
 |--------------------------------------------------|
 |--------------------------------------------------|
 |--------------------------------------------2-----|
 |-----------------------------------0-----0--0-----|

[G5] [F#G5]  
[+B] [E] [E] [E] [E]  
 
 |-----------------------------|
 |-(20)r-------------17-20b23==|
 |---------------/19-----------|
 |-------------0---------------|
 |-----------------------------|
 |-----------------------------|

|
| +E E E E E E E E
 
 |-----------------------------|
 |-----------------------------|
 |-----------------------------|
 |-----------------------------|
 |--(2)--2-5---4s==5-----------|
 |--(0)--0-3-0-2s==3--0--6-----|

[E5] [G5] [F#5] [G5] [E5]  
 
 |---3----|

+Q +Q E E E E E E E S S S S S S S S S S E
 
 |--------------------12----12-|-12----------------------------------------------------|
 |-(20)---(20)r\---12----12----|-----15---12-------12-------12-------------------------|
 |-----------------------------|-------------14b16----14b16----14b16r14-12----14p12----|
 |-----------------------------|-------------------------------------------14-------14-|
 |-----------------------------|-------------------------------------------------------|
 |-----------------------------|-------------------------------------------------------|

|
| +E E E E E E E E +E E E E E E E E
 
 |-----------------------------|-------------------------------------------------------|
 |-----------------------------|-------------------------------------------------------|
 |-----------------------------|-------------------------------------------------------|
 |-----------------------------|-------------------------------------------------------|
 |---------------------------2-|-(2)----2-----5-----------------4s=======5-----------2-|
 |--(6)-5---3----5--3--2--1--0-|-(0)----0-----3--------0--------2s=======3-----0-----0-|

~~~~ ~~~~ ~~~~~~~~~~
 
 |--3--| |--3--|

E S S S Q S S S E +Q
 
 |----------------------------------------------|
 |----------------------------------------------|
 |-[12]-14p12----[12]--14p12----[12]-([12])-----|
 |------------14-------------14-----------------|
 |----------------------------------------------|
 |----------------------------------------------|

|
| H E E E E
 
 |----------------------------------------------|
 |----------------------------------------------|
 |----------------------------------------------|
 |----------------------------------------------|
 |------------------------------------------2---|
 |--------------------------------0-----0---0---|

[B5] [Bb5] ~~~~~~~~~
E E E E E E E E +H Q Q
 
 |---------7--------|---------------------|
 |-----7-----7---11-|-(11)------11\-------|
 |---7---7-----7-11-|-(11)------11\-------|
 |-9----------------|---------------------|
 |------------------|---------------------|
 |------------------|---------------------|

|
| E E E E E E E E +E E Q E E E E
 
 |------------------|---------------------|
 |------------------|---------------------|
 |------------------|---------------------|
 |-4-4-4-4-4-4-4--3-|--(3)-3-3------------|
 |-2-2-2-2-2-2-2--1-|--(1)-1-1---1--0-----|
 |------------------|-----------------3-0-|

[B5] [Bb5] PM
E E E S S E E Q E E E E E E E E
 
 |-------------------------------|-6s8-8s10-10s12---15-|
 |-------12-13-/13p12-11-12------|-7s9-9s11-11s13---15-|
 |-14b16--------------------x\---|---------------------|
 |-------------------------------|---------------------|
 |-------------------------------|---------------------|
 |-------------------------------|----------------0----|

|
| PM
| E E E E E E E E E E E E E E Q
 
 |-------------------------------|---------------------|
 |-------------------------------|---------------------|
 |-------------------------------|---------------------|
 |--4-----4--4---4-----4--4-4--3-|---------------------|
 |--2-----2--2---2-----2--2-2--1-|-5s7-7s=9--9s11------|
 |-------------------------------|----------------0----|

[E5] [G5] [F#5G5] [G5] [F#E5] 
[+E] [+E] [E] [E] [E] [E] [E] [E] [+E] [E] [E] [E] [E] [E] [E] [E]  
 
 |-(15)b20-(15)-12----10-12---/6-|-(6)-6-5-3-5b6-3-----|
 |-(15)b20-(15)-12-12-10-12---/6-|-(6)-6-5-3-------5-3-|
 |-------------------------------|---------------------|
 |-------------------------------|---------------------|
 |-------------------------------|---------------------|
 |-------------------------------|---------------------|

|
| E E E E E E E E +E E E E E E E E
 
 |-------------------------------|---------------------|
 |-------------------------------|---------------------|
 |-------------------------------|---------------------|
 |-------------------------------|---------------------|
 |---2-------2---5-----4s=5------|-----------5---5-4-2-|
 |---0-------0---3--0--2s=3-0--6-|-(6)-5-3-5-3---3-2-0-|

D.S. al Coda
E E [G5]E E [F#G5E5]Q. E E E E E E E E E
 
 |---------------------|--------------------||
 |---------------------|--------------------||
 |--4--3-2-------------|--------------------||
 |---------2-2---------|---2-5-2-4-2--------||
 |---------------------|---2-5-2-4-2-1-2----||
 |---------------------|---------------0----||

|
| +E E E E E E E S S E E E E E E E E
 
 |---------------------|--------------------||
 |---------------------|--------------------||
 |---------------------|--------------------||
 |---------------------|---2-5-2-4-2--------||
 |-(2)-2-5---4s5-2-2---|---2-5-2-4-2-1-2----||
 |-(0)-0-3-0-2s3-0-0---|---------------0----||

&
Gtrs[E5G5] I, II[F#G5] [Bb5] [G5] [F#E5] [G5] [F#G5] [Bb5]
[+E] [E] [E] [E] [E] [E] [E] [E] [+E] [E] [E] [E] [E] [E] [E] [E] [+E] [E] [E] [E] [E] [E] [E] [E]  
 
 |-------------------|-------------------|-------------------|
 |-------------------|-------------------|-------------------|
 |-------------------|-------------------|-------------------|
 |-------------------|-------------------|-------------------|
 |-(2)-2-5---4s5---8-|-(8)-------5-5-4-2-|-(2)-2-5---4s5---8-|
 |-(0)-0-3p0-2s3-0-6-|-(6)-5-3-5-3-3-2-0-|-(0)-0-3p0-2s3-0-6-|

+E E E E [G5]E E [F#E5]E E +E E [G5]E E [F#G5]E E E [Bb5]E +W
 
 |-------------------|-------------------|--------*|
 |-------------------|-------------------|--------*|
 |-------------------|-------------------|--------*|
 |-------------------|-------------------|--------*|
 |-(8)-------5-5-4-2-|-(2)-2-5---4s5---8-|-(8)----*|
 |-(6)-5-3-5-3-3-2-0-|-(0)-0-3p0-2s3-0-6-|-(6)----*|

Duration Legend
 
 ---------------
 W - whole; H - half; Q - quarter; E - 8th; S - 16th; T - 32nd; X - 64th; a - acciaccatura

+ - note tied to previous; . - note dotted; .. - note double dotted
Uncapitalized letters represent notes that are staccato (1/2 duration)
Irregular groupings are notated above the duration line
Duration letters will always appear directly above the note/fret number it represents the
duration for. Duration letters with no fret number below them represent rests. Multi-
bar rests are notated in the form Wxn, where n is the number of bars to rest for. Low
melody durations appear below the staff
Tablature Legend
 
 ----------------

h - hammer-on
p - pull-off
b - bend
pb - pre-bend
r - bend release (if no number after the r, then release immediately)
/\ - slide into or out of (from/to "nowhere")
s - legato slide
S - shift slide
- natural harmonic
(n) - artificial harmonic
n(n) - tapped harmonic
~ - vibrato
tr - trill
T - tap
TP - trem. picking
PM - palm muting
\n/ - tremolo bar dip; n = amount to dip
\n - tremolo bar down
n/ - tremolo bar up
/n\ - tremolo bar inverted dip
= - hold bend; also acts as connecting device for hammers/pulls
- volume swell (louder/softer)
x - on rhythm slash represents muted slash
o - on rhythm slash represents single note slash
Misc Legend
 
 -----------

| - bar
|| - double bar
||o - repeat start
o|| - repeat end
*| - double bar (ending)
: - bar (freetime)
$ - Segno
& - Coda
Tempo markers - = BPM(8/16=s8/s16), where s8 = swing 8ths, s16 = swing 16ths

Important: The song above is NOT stored on the Chordie server. The original song is hosted at www.guitaretab.com. Chordie works as a search engine and provides on-the-fly formatting. Chordie does not index songs against artists'/composers' will. To remove this song please click here.

Text color:
Chord color:
Chord grids: 
Font size:    
Page size: 

B5 Bb5 Bb5/F E E5 F#5 G5 G5/D
Rate #1 of 1 versions

Jango Player

Login - add to songbook

SHARE PAGE  




You need to log in to post comments