Guitar Tabs, Chords and Lyrics
Server problems seems to be fixed. Chordie has been experiencing problems with songs disappearing. These issues now seems to be fixed, but still verifying the fix. If you find anything strange, please email admin@chordie.com.


All I Ever Wanted  The Airborne Toxic Event

If there is interest, I could go through and do a full tab of the song with all the
string and guitar parts, but this tab only has the few main lines.
Capo 5 on the album
Capo 2 for the Walt Disney concert
Intro riff
 
 e|-------------------|------------------|------------------|------------------|
 B|-------------------|------------------|------------------|------------------|
 G|-------------------|------------------|------------------|------------------|
 D|----0---0----0---0-|---4---4------4---|------------------|------------------|
 A|--0---0--------0---|-2---2------2---2-|---0---0----0---0-|---4---0----0---0-|
 E|-------------------|------------------|-2---2--------2---|-2---2--------2---|

I find the above easier, but the band actually plays it like so:
 
 e|-------------------|------------------|------------------|------------------|
 B|-------------------|------------------|------------------|------------------|
 G|-------------------|------------------|------------------|------------------|
 D|-------------------|------------------|------------------|------------------|
 A|----5---5----5---5-|---9---9------9---|---0---0----0---0-|---4---0----0---0-|
 E|--5---5--------5---|-7---7------7---7-|-2---2--------2---|-2---2--------2---|

Melody Riff 1
 
 e|----5-----7-----5--|----7-----5-----|-----5-----5----|--5-----5-----5---|
 B|--7-----7-----7----|--7-----7-----7-|-8-----7-----8--|----7-----8-------|
 G|-------------------|----------------|----------------|------------------|
 D|-------------------|----------------|----------------|------------------|
 A|-------------------|----------------|----------------|------------------|
 E|-------------------|----------------|----------------|------------------|

Verse Riff
 
 e|----5---5---5---5--|-------------------|-------------------|-------------------|
 B|--7---7---7---7----|----7---7---7---7--|-------------------|-------------------|
 G|-------------------|--7---7---7---7----|----7---7---7---7--|----7---7---7---7--|
 D|-------------------|-------------------|--7---7---7---7----|--7---7---7---7----|
 A|-------------------|-------------------|-------------------|-------------------|
 E|-------------------|-------------------|-------------------|-------------------|

Intro
D Bm F#m x3
[D]I can only say these [Bm]things to you while you're [F#m]sleeping.
I hear the the [D]hum from the wires, the [Bm]sounds of the morning [F#m]creeping.
I [D]lie awake and [Bm]pretend you can [F#m]hear me.
D Bm F#m x2
You [D]tell that you're scared, that you're [Bm]turning into your [F#m]mother,
I [D]feel myself [Bm]turn into my [F#m]father.
We could [D]lie to each other like [Bm]they do and say we're still [F#m]happy
It's [D]easy when you're young and [Bm]you still want it so [F#m]badly.
And I [Bm]feel my [A]heart pou[G]nding
And I [Bm]think [A]I might [G]scream
I can [D]tell you that you're all I ever [A]wanted, dear
I can [Bm]utter every word you'd ever [G]hope to hear
I [D]shudder when I think that I [A]might not be here [Bm]forever, forever, forever.
D Bm F#m x2
At [D]night you whisper like a [Bm]ghost and you look so [F#m]shaken
You're so [D]quiet and small and you [Bm]tell me you want to be [F#m]taken.
I just [D]never think of you as the [Bm]kind of girl who would [F#m]say that.
You [D]suddenly seem like some [Bm]faceless thing in my [F#m]grasp.
With your [Bm]eyes so [A]wide, your face a[G]glow
Its the [Bm]face of [A]someone I don't [G]know.
I can [D]tell you that you're all I ever [A]wanted, dear
I can [Bm]utter every word you'd ever [G]hope to hear
I [D]shudder when I think that I [A]might not be here [Bm]forever, forever, forever.
D Bm F#m x7
And [Bm]all I could think is that it [A]must be a kind of re[G]bellion.
To [Bm]arm your fears like [A]soldiers and [G]slay them.
I can [D]tell you that you're all I ever [A]wanted, dear
Through the [Bm]din of your breathing while you're [G]sleeping here.
You [D]wake and ask me if I'm [A]going to be here [Bm]forever, forever, forever.
Your [D]face so twisted and your [A]eyes alight
I want to [Bm]tell you I can change it when you [G]cry at night
But [D]I'd [A]be [Bm]lying.
[D]Love [A]is [Bm]defying.
End on D

Important: The song above is NOT stored on the Chordie server. The original song is hosted at www.guitaretab.com. Chordie works as a search engine and provides on-the-fly formatting. Chordie does not index songs against artists'/composers' will. To remove this song please click here.

Text color:
Chord color:
Chord grids: 
Font size:    
Page size: 

A Bm D F#m G
Rate #1 of 5 versions

Login - add to songbook

SHARE PAGE  



You need to log in to post comments