Guitar Tabs, Chords and Lyrics
Major upgrade!! After one year development the new version of Chordie is now online! Please give feedback.


Dance Floor  The Apples in Stereo

Song: Dance Floor
Album: Travellers in Space and Time
Year: 2010
Tuning: Standard
[B] [Bb/B] [C#m] [E] [G#m] [F#]  
 
 E|------2-------X--------4-------0-------4-------2--------------|
 B|------4-------4--------5-------0-------4-------2--------------|
 G|------4-------4--------6-------1-------4-------3--------------|
 D|------4-------4--------6-------2-------6-------4--------------|
 A|------2-------1--------4-------2-------6-------4--------------|
 E|------2-------X--------4-------0-------4-------2--------------|

Intro Synth (x4):
 
 E|---------4------------2----------0------------|
 B|--4-2---------4-2----------4-2----------------|
 G|------4-----------4------------4--------------|
 D|----------------------------------------------|
 A|----------------------------------------------|
 E|----------------------------------------------|

Intro Harmonizing Synth (x last2):
 
 E|-----11-9------------------11-9-------------------11-9---------------------|
 B|------------12-----9---------------12-----7----------------12-----5--------|
 G|---------------------------------------------------------------------------|
 D|---------------------------------------------------------------------------|
 A|---------------------------------------------------------------------------|
 E|---------------------------------------------------------------------------|

Intro:
[G#m] [F#] [E]  
[G#m] [F#] [E]  
[G#m] [F#] [E]  
[G#m] [F#] [E]  
Verse:
I wanna [B]feel that
I wanna [Bb/B]feel that, that my [C#m]future's still comin[E]
I walk [B]into the night
and from the [Bb/B]city lights, but my [C#m]mind is still runnin[E]
I could see your [B]face again
I could see my o[Bb/B]ld friends, in my [C#m]sweet imagination[E]
I walk int[B]o the street
and from the [Bb/B]city beat But my m[C#m]ind is still racin[E]
Chorus:
The [G#m]dance floor isn't [F#]there no more But my [E]body's still movin
Tell me,[G#m] do you know Where are [F#]we to go when our w[E]orld is so confusing
Verse: (Same Chords as the first)
Ooh, I wanna go there,
Temptations fill the air in my sweet recollection. (sweet recollection)
Ooh, I see a "For Sale" sign,
Where we made up our minds to be more than just good friends.
Chorus:
The [G#m]dance floor isn't [F#]there no more But my [E]body's still movin
Tell me,[G#m] do you know Where are [F#]we to go when our w[E]orld is so confusing
The [G#m]dance floor isn't [F#]there no more But my [E]body's still movin
Tell me,[G#m] do you know Where are [F#]we to go when our w[E]orld is so confusing
Post Chorus:
You know the[G#m] dance floor[F#] Isn't [E]there no more
You know the[G#m] dance floor[F#] Isn't [E]there no more
Bridge (x4):
When our[B] world is so confusing[Bb/B]
When our [C#m]world is so confusing[E]
Verse (Same as the others):
I walk into the night, and from the city lights,
But my mind is still runnin'. (mind is still runnin')
I wanna feel that,
I wanna feel that, that my future's still comin'.
Chorus(repeat same chords until end, end on G#m)

Important: The song above is NOT stored on the Chordie server. The original song is hosted at www.guitaretab.com. Chordie works as a search engine and provides on-the-fly formatting. Chordie does not index songs against artists'/composers' will. To remove this song please click here.

Text color:
Chord color:
Chord grids: 
Font size:    
Page size: 

B Bb/B C#m E F# G#m
Rate #2 of 2 versions

Jango Player

Login - add to songbook

SHARE PAGE  



You need to log in to post comments