Guitar Tabs, Chords and Lyrics
Server problems seems to be fixed. Chordie has been experiencing problems with songs disappearing. These issues now seems to be fixed, but still verifying the fix. If you find anything strange, please email admin@chordie.com.


40 East  The Avett Brothers

 
 -------------------------------------------------------------------------------

40 EAST - The Avett Brothers
 
 -------------------------------------------------------------------------------

Tabbed by: Macheeoo
Email: macheeoo@yahoo.com
Tuning: EADGBE CAPO II
Intro/Riff: Repeat x4
[G] [Bm] [C]  
 
 e|--------------2------0----------------------------------|
 B|--------------3------1--1-------------------------------|
 G|----------4------0--0-------------------------------|
 D|----------4------2--0h2p0---------------------------|
 A|--------0-1-2-2--2-3-3--3----2-3-2-0--------------------|
 E|--3----------------------------------3------------------|

[G]Sleep [Bm]darling r[C]est your mind
[G]I'll drive all [Bm]night to get to[C] you
[G]Please moan [Bm]softly if you [C]must moan at all
[G]I'm moving [Bm]through the [C]night toward you
[Am]Sleep d[G]arling, [Am]sleep [G]darling
[G]I'm [D7/F#]on my way to[C] you
[G]I'm [D7/F#]on my way to[C] you
REPEAT INTRO
Rest my angel, not one word,
Between you and I on the telephone line
You are weary and need your sleep
So leave the hard thinking and the driving to me
Sleep darling, sleep darling
I'm on my way to you
I'm on my way to you
Let go

Important: The song above is NOT stored on the Chordie server. The original song is hosted at www.guitaretab.com. Chordie works as a search engine and provides on-the-fly formatting. Chordie does not index songs against artists'/composers' will. To remove this song please click here.

Text color:
Chord color:
Chord grids: 
Font size:    
Page size: 

Am Bm C D7/F# G
Rate #1 of 3 versions

Jango Player

Login - add to songbook

SHARE PAGE  




You need to log in to post comments