Guitar Tabs, Chords and Lyrics
Server problems seems to be fixed. Chordie has been experiencing problems with songs disappearing. These issues now seems to be fixed, but still verifying the fix. If you find anything strange, please email admin@chordie.com.


Paul Newman vs. The Demons  The Avett Brothers

 
 -------------------------------------------------------------------------------

PAUL NEWMAN VS. THE DEMONS - The Avett Brothers
 
 -------------------------------------------------------------------------------

Tabbed by: Macheeoo
E-mail: macheeoo@yahoo.com
Tuning: Standard
Intro: (faint barred acoustic guitar)
[C] [B] [Em] [B]  
 
 e|----8-----7-----7-----7------|
 B|----8-----7-----8-----7------|
 G|----9-----8-----9-----8------|
 D|----10----9-----9-----9------|
 A|----10----9-----7-----9------|
 E|----8-----7-----X-----7------|

Verse: Electric Guitar part
[C] [B] [Em] [B]  
 
 e|-----------------------------------------------------------------------|
 B|-----------------------------------------------------------------------|
 G|-----------------------------------------------------------------------|
 D|-----------------------------------------------------------------------|
 A|---33-333-33-333---22-222-22-222---77-777-77-777---22-222-22-222-------|
 E|-----------------------------------------------------------------------| x4

Acoustic Guitar verse
[C] [B]  
 
 e|---------------------------------------------------------------------------|
 B|------8----8---------8----8--------7---7---7---7-8-7-----------------------|
 G|-----9----9----9----9----9----9---8---8---8----------8---------------------|
 D|---10---10---10---10---10---10---9---9---9---9---------9-------------------|
 A|---------------------------------------------------------------------------|
 E|---------------------------------------------------------------------------|

| Em B
 
 e|-----7---7-------7---7-----------------------------------------------------|
 B|----8---8---8---8---8---8----------7---7---7----7-8-7----------------------|
 G|---9---9---9---9---9---9----------8---8---8-----------8--------------------|
 D|---------------------------------9---9---9---9----------9------------------|
 A|---------------------------------------------------------------------------|
 E|---------------------------------------------------------------------------|

Chorus: Electric Guitar part 1
[Em] [A] [B]  
 
 e|-----------------------------------|
 B|-----------------------------------|
 G|-----------------------------------|
 D|---2---7---9-------------------2---|
 A|---2---7---9-------------------2---|
 E|---0---5---7---7-8-7-5-7-5-3-2-0---| x2

Chorus: Electric Guitar part 2
[Em] [B] [C] [G] [F#]  
 
 e|-----------------------------------|
 B|-----------------------------------|
 G|-----------------------------------|
 D|---2---9---10--5-4-----------------|
 A|---2---9---10--5-4-----------------|
 E|---0---7---8---3-2-----------------| x2

Repeat Verse
Repeat Chorus
Repeat Quite Verse
Repeat LOUD Chorus
Lyrics:
You may have to drag me away from my demons
Kicking and screaming
It's been so long now, I've been with them
Don't know where they stop and I begin
We draw a line in the sand
Will you cross it? Oh, will you die for this?
Got nothing to tell you that you don't
Through your sadness below, already know
Yeah, yeah, yeah
Live through the past again
How many times must I live through the past again?
No more
Truth beyond truth and by our design
It is very fine like Newman's wine
Oh, to be like him and walk a path
To lend a hand, do something worth a damn
Yeah, yeah, yeah
Live through the past again
How many times must I live through the past again?
No more, wait
You may have to drag me away from my demons
Kicking and screaming
Yeah, yeah, yeah
Live through the past again
How many times must I live through the past again?

Important: The song above is NOT stored on the Chordie server. The original song is hosted at www.guitaretab.com. Chordie works as a search engine and provides on-the-fly formatting. Chordie does not index songs against artists'/composers' will. To remove this song please click here.

Text color:
Chord color:
Chord grids: 
Font size:    
Page size: 

A B C Em F# G
Rate #1 of 2 versions

Login - add to songbook

SHARE PAGE  




You need to log in to post comments