Guitar Tabs, Chords and Lyrics
Login is temporarily disabled for some users. Do not panic. Will be back in an hour or two. DO NOT REREGISTER!!


Pints of Guinness  The Bollox

"Pints of Guinness" by The Bollox
Tabbed by Matt Benecke
The Bollox is the side project of Jason Devore from Authority Zero. Scope out the
band's websites:
http://thebolloxmusic.com/
http://www.myspace.com/thebolloxmusic
http://www.cdbaby.com/cd/bollox
Chords
[G] [Cadd9] [Em] [Am] [C/G]  
 
 E|----3-----3------0-----0----0----|
 B|----3-----3------0-----1----1----|
 G|----0-----0------0-----2----0----|
 D|----0-----2------2-----2----2----|
 A|----x-----3------2-----0----3----|
 E|----3-----x------0-----x----3----|

Standard Tuning
(Listen to the song for the strumming pattern)
Intro Chords (0:00 - 0:14)
G, Cadd9, G, Cadd9
Intro Riff (Played over the chords above) Let Ring-V --V
 
 E|----------------------------------------------------------------------------------|
 B|----------------------------------------------------------------------------------|
 G|-7h9---9p7---9--7-7h9---9p7-7-7h9-9-9p7-7--7h9-9-9p7-7-7~--7h9-9-9p7-7-7~---------|
 D|-----------9----------------------------------------------------------------------|
 A|----------------------------------------------------------------------------------|
 E|----------------------------------------------------------------------------------|

or
 
 E|----------------------------------------------------------------------------------|
 B|-3h5---5p3---5--3-3h5---5p3-3-3h5-5-5p3-3--3h5-5-5p3-3-3~--3h5-5-5p3-3-3~---------|
 G|-----------4----------------------------------------------------------------------|
 D|----------------------------------------------------------------------------------|
 A|----------------------------------------------------------------------------------|
 E|----------------------------------------------------------------------------------|

Verse 1 (0:15 - 0:43)
And [G]I like pints of Guinness
And [Cadd9]I like shots of whiskey
There's a b[G]ar in my hotel
Where I k[Cadd9]now that they all miss me
There's a [G]fire that keeps on burning
And as we [Cadd9]stare into the flames
The [G]pints they keep on coming
As we [Cadd9]drink away our pain
Interlude/Guitar Riff (Played over Verse/Intro chords) (0:44 - 0:52)
 
 E|-5p3---3-5p3---3-5p3---3-5p3---3-5p3---3-5p3---3-5p3---3-5p3---3-5p3-----|
 B|-----3-------3-------3-------3-------3-------3-------3-------3-----------|
 G|-------------------------------------------------------------------------|
 D|-------------------------------------------------------------------------|
 A|-------------------------------------------------------------------------|
 E|-------------------------------------------------------------------------|

Verse 2 (0:52 - 1:20)
And [G]I like pints of Guinness
As [Cadd9]Billy used to say
There [G]ain't so fucking much here
That we'll [Cadd9]drink away the day
As [G]night it starts to fall on [Cadd9]old Dublin town
The [G]pints they keep on coming
And yeah you [Cadd9]know where I'll be found
Riff played over Pre-Chorus Chords (1:21 - 1:34)
[Em] [Am] [Em] [Am]  
 
 E|-----3~-------3~-------3~-------3~--------|
 B|---3--------3--------3--------3-----------|
 G|-4--------5--------4--------5-------------|
 D|------------------------------------------|
 A|------------------------------------------|
 E|------------------------------------------|

Pre-Chorus (1:20 - 1:37)
My [Em]love...
My [Am]love...
My [Em]love...
My [Am]love...[C/G]
Chorus (1:38 - 2:13)
I'm coming home to [G]you[Cadd9]
There's nothing I won't [G]do[Cadd9]
I'm coming home to [G]you
My [Em]love
My [Am]love
My [Em]love
My [Am]love
Guitar Solo Chords: G, Cadd9, G, Cadd9, G, Cadd9, G, Cadd9
Guitar Solo (2:13 - 2:26)
 
 E|-----------------------------------10h12-12-12-12-10----10---------------|
 B|-10p8---10-10s12--10h12-12-12s15---------------------12----12--10-10-----|
 G|------9------------------------------------------------------------------|
 D|-------------------------------------------------------------------------|
 A|-------------------------------------------------------------------------|
 E|-------------------------------------------------------------------------|
 E|-----------10-10h12-12-12p10-10-----------------|
 B|--10s12-12--------------------------------------|
 G|------------------------------------------------|
 D|------------------------------------------------|
 A|------------------------------------------------|
 E|------------------------------------------------|

(2:28 - 2:42)
 
 E|----------------------------------10----12p10-10-12p10-10----------------|
 B|-----8-8--------------------10-12-------------------------12~---12p10-10-|
 G|-9p7-----9-7-9---------9-12----------------------------------------------|
 D|----------------9-9h12---------------------------------------------------|
 A|-------------------------------------------------------------------------|
 E|-------------------------------------------------------------------------|
 E|------------------------------------------------|
 B|--10s8-8-8h10-10-10s12-12-12p10-10-10--8~-------|
 D|------------------------------------------------|
 A|------------------------------------------------|
 E|------------------------------------------------|

Verse 3 (2:42 - 3:10)
It's [G]five o'clock in the morning
And [Cadd9]everyone's gone home
The [G]streets are quiet and empty
But [Cadd9]I don't feel alone
Cuz the [G]sun it starts to shine
On [Cadd9]old Dublin town
The [G]Liffey it starts to sparkle
Ah yeah you [Cadd9]know where I'll be found
Riff played over Pre-Chorus Chords (3:12 - 3:24)
[Em] [Am] [Em] [Am]  
 
 E|-----3~-------3~-------3~-------3~--------|
 B|---3--------3--------3--------3-----------|
 G|-4--------5--------4--------5-------------|
 D|------------------------------------------|
 A|------------------------------------------|
 E|------------------------------------------|

Pre Chorus (3:11 - 3:28)
My [Em]love...
My [Am]love...
My [Em]love...
My [Am]love...[C/G]
Chorus (3:29 - 3:47)
I'm coming home to [G]you[Cadd9]
There's nothing I won't [G]do[Cadd9]
I'm coming home to [G]you
Riff played over Post-Chorus Chords (3:49 - 3:24)
[Em] [Am] [Em] [Am]  
 
 E|-----3~-------3~-------3~-------3~--------|
 B|---3--------3--------3--------3-----------|
 G|-4--------5--------4--------5-------------|
 D|------------------------------------------|
 A|------------------------------------------|
 E|------------------------------------------|

Post Chorus (3:48 - 4:03)
My [Em]love...
My [Am]love...
My [Em]love...
My [Am]love...
Outro Chords: G, Cadd9, G, Cadd9, End on G
Outro Riff (4:04 - 4:19)
 
 E|-----------------------------------19-15-----19--15------19-------------|
 B|-10p8---10-10s12--12p10-12-12s15---------17---------17-------17--17-----|
 G|------9-----------------------------------------------------------------|
 D|------------------------------------------------------------------------|
 A|------------------------------------------------------------------------|
 E|------------------------------------------------------------------------|
 E|------------------------------------------------------------------------|
 B|--17--17-17-15~---------------------------------------------------------|
 G|------------------------------------------------------------------------|
 D|------------------------------------------------------------------------|
 A|------------------------------------------------------------------------|
 E|------------------------------------------------------------------------|


Important: The song above is NOT stored on the Chordie server. The original song is hosted at www.guitaretab.com. Chordie works as a search engine and provides on-the-fly formatting. Chordie does not index songs against artists'/composers' will. To remove this song please click here.

Text color:
Chord color:
Chord grids: 
Font size:    
Page size: 

Am C/G Cadd9 Em G
Rate #1 of 2 versions

Login - add to songbook

SHARE PAGE  




You need to log in to post comments