Guitar Tabs, Chords and Lyrics
Login is temporarily disabled for some users. Do not panic. Will be back in an hour or two. DO NOT REREGISTER!!


The Brothers the Bollox   The Bollox

 
 e|---------------------------------------------------------------------|
 B|---------------------------------------------------------------------|
 G|---------------------------------------------------------------------|
 D|-----2p0---0h2---3-2------3p2-0-2h3p2----------2p0---0h2---3-2-------|
 A|-0-0-----0-----0------0-0-------------3--3-0-0-----0-----0-----------|
 E|---------------------------------------------------------------------|

 


 


 Riff 1 Cont.


 


 

 
 e|--------------------------------------------------------------------|
 B|--------------------------------------------------------------------|
 G|--------------------------------------------------------------------|
 D|--------------------------------------------------------------------|
 A|-3p2p0-3p2p0-3p2p0-0-0----------------------------------------------|
 E|--------------------------------------------------------------------|

 


 


 Pre-Verse 1 Cont.


 


 Riff 1a (0:17 - 0:24)


 


 Guitar 1


 


 

 
 e|---------------------------------------------------------------------|
 B|---------------------------------------------------------------------|
 G|---------------------------------------------------------------------|
 D|-----2p0---0h2---3-2------3p2-0-2h3p2----------2p0---0h2---3-2-------|
 A|-0-0-----0-----0------0-0-------------3--3-0-0-----0-----0-----------|
 E|---------------------------------------------------------------------|

 


 


 Riff 1a Cont.


 


 

 
 e|----------------------------------------------------------------------|
 B|----------------------------------------------------------------------|
 G|-----------------------2----------------------------------------------|
 D|-----------------------2----------------------------------------------|
 A|-3p2p0-3p2p0-3p2p0-----0----------------------------------------------|
 E|-------------------3--------------------------------------------------|

 


 


 Guitar 2 (Acoustic) (over Riff 1a) (0:17 - 0:24)


 


 v ^ v ^ v ^ v ^ v ^ v ^ v ^ v ^ v ^ v ^ v ^ v ^ v ^ v ^ v ^ v V** (ring out)


 

 
 e|-0-0-0-0-0-0-0-0-0-0-0-0-0-0-----0-0-0-0-0-0-0-0-0-0-0-0-0-0----------------|
 B|-1-1-1-1-1-1-1-1-1-1-1-1-1-1-----1-1-1-1-1-1-1-1-1-1-1-1-1-1----------------|
 G|-2-2-2-2-2-2-0-0-2-2-2-2-2-2-0-0-2-2-2-2-2-2-0-0-2-2-2-2-2-2-0---2~ --------|
 D|-2-2-2-2-2-2-2-2-2-2-2-2-2-2-0-0-2-2-2-2-2-2-2-2-2-2-2-2-2-2-0---2~ --------|
 A|-0-0-0-0-0-0-3-3-0-0-0-0-0-0-2-2-0-0-0-0-0-0-3-3-0-0-0-0-0-0-2---0~ --------|
 E|-----------------------------3-3-----------------------------3--------------|

 


 


 Verse 1 (0:24 - 0:36)


 


 v** (Lyrics begin at 0:23 w/ final chord of Guitar 2 Riff 1a)


 

 
 e|--------------------------------------------------------------------|
 B|--------------------------------------------------------------------|
 G|-2~-----------------------------------------5-2---------------------|
 D|-2~-----------------------------------------5-2---------------------|
 A|-0~-----------------------------------------3-0---------------------|
 E|--------------------------------------------------------------------|

 


 


 We stand, in silence and pray for better days The Brothers, the Bollox


 


 (0:29) (Let ring)


 

 
 e|-----------------------------------------------------------------|
 B|-----------------------------------------------------------------|
 G|------------------------5-2--------------------------------------|
 D|------------------------5-2--------------------------------------|
 A|------------------------3-0--------------------------------------|
 E|-----------------------------------------------------------------|

 


 


 We'll get carried away Now, with bottles in hand we cut and we stand


 


 (0:32) (Let ring)


 

 
 e|-----------------------------------------------------------------|
 B|-----------------------------------------------------------------|
 G|----------------------5-2----------------------------------------|
 D|----------------------5-2----------------------------------------|
 A|----------------------3-0----------------------------------------|
 E|-----------------------------------------------------------------|

 


 


 And get carried away So, we're running around this dismal town to piss the night


 hey!


 


 Interlude: (0:37 - 0:43)


 


 Guitar 1 Riff 1a


 


 Guitar 2 Riff 1a chords


 


 Verse 2 (0:44 - 0:56)


 


 v


 

 
 e|----------------------------------------------------------------------|
 B|----------------------------------------------------------------------|
 G|---2~---------------------------------------------------5-2-----------|
 D|---2~---------------------------------------------------5-2-----------|
 A|---0~---------------------------------------------------3-0-----------|
 E|----------------------------------------------------------------------|

 


 


 With brothers to the left of me and brothers to the right With the music in the air ah


 


 (0:48) (Let ring)


 

 
 e|---------------------------------------------------------------|
 B|---------------------------------------------------------------|
 G|----------------------5-2--------------------------------------|
 D|----------------------5-2--------------------------------------|
 A|----------------------3-0--------------------------------------|
 E|---------------------------------------------------------------|

 


 


 We'll get rowdy tonight So raise 'em up and take 'em down, what more can we say?


 


 (0:53) (Let ring)


 

 
 e|----------------------------------------------------------------|
 B|----------------------------------------------------------------|
 G|-5-2------------------------------------------------------------|
 D|-5-2------------------------------------------------------------|
 A|-3-0------------------------------------------------------------|
 E|----------------------------------------------------------------|

 


 


 So we're running around this dismal town to piss the night away, hey!


 


 Chorus 1 (0:57 - 1:10)


 


 Guitar 1


 


 

 
 e|--------------------------------------------------------------------|
 B|--------------------------------------------------------------------|
 G|-7-7-7-7-5-5-2-2--7-7-7-7-5-5-2-2--2-2-2-2-5-5-7-7--2-2-2-2-5-5-7-7-|
 D|-7-7-7-7-5-5-2-2--7-7-7-7-5-5-2-2--2-2-2-2-5-5-7-7--2-2-2-2-5-5-7-7-|
 A|-5-5-5-5-3-3-0-0--5-5-5-5-3-3-0-0--0-0-0-0-3-3-5-5--0-0-0-0-3-3-5-5-|
 E|--------------------------------------------------------------------|

 


 


 (*Chord switches shown as chord names above lyrics)


 


 [(D5)]Running around this dismal town to [(C5)]piss the night [(A5)]away


 


 At the [(D5)]throw of the switch you son of a bitch they [(C5)]get carried [(A5)]away


 


 (A5 contd.) (C5) (D5)


 They're running around this dismal town to piss the night away


 


 So [(A5)]sing 'em a song we'll sing it along and [(C5)]get carried [(D5)]away, hey!


 


 Interlude 2: (1:10 - 1:16)


 


 Guitar 1 Riff 1a


 


 Guitar 2 Riff 1a chords


 


 Verse 3 (1:17 - 1:29)


 


 v (Let ring)


 

 
 e|----------------------------------------------------------------------|
 B|----------------------------------------------------------------------|
 G|---2~----------------------------------------5-2----------------------|
 D|---2~----------------------------------------5-2----------------------|
 A|---0~----------------------------------------3-0----------------------|
 E|----------------------------------------------------------------------|

 


 


 My head is tickin the clock is wearin' thin with our heads held high


 


 (0:48) (Let ring)


 

 
 e|---------------------------------------------------------------|
 B|---------------------------------------------------------------|
 G|-------------------------------------5-2-----------------------|
 D|-------------------------------------5-2-----------------------|
 A|-------------------------------------3-0-----------------------|
 E|---------------------------------------------------------------|

 


 


 the bottles fly we're tipsy once again So grab your glass *and kiss your ass for


 


 (0:53) (Let ring)


 

 
 e|----------------------------------------------------------------|
 B|----------------------------------------------------------------|
 G|-----------------------5-2--------------------------------------|
 D|-----------------------5-2--------------------------------------|
 A|-----------------------3-0--------------------------------------|
 E|----------------------------------------------------------------|

 


 


 *well it's time to play So we'll be running around this dismal town to piss the night


 hey!


 


 (*--unsure of these lyrics)


 


 Chorus 2 (1:30 - 1:43)


 


 Guitar 1


 


 

 
 e|--------------------------------------------------------------------|
 B|--------------------------------------------------------------------|
 G|-7-7-7-7-5-5-2-2--7-7-7-7-5-5-2-2--2-2-2-2-5-5-7-7--2-2-2-2-5-5-7-7-|
 D|-7-7-7-7-5-5-2-2--7-7-7-7-5-5-2-2--2-2-2-2-5-5-7-7--2-2-2-2-5-5-7-7-|
 A|-5-5-5-5-3-3-0-0--5-5-5-5-3-3-0-0--0-0-0-0-3-3-5-5--0-0-0-0-3-3-5-5-|
 E|--------------------------------------------------------------------|

 


 


 (*Chord switches shown as chord names above lyrics)


 


 [(D5)]Running around this dismal town to [(C5)]piss the night [(A5)]away


 


 I'm t[(D5)]hrowing the switch you son of a bitch they [(C5)]get carried [(A5)]away


 


 (A5 contd.) (C5) (D5)


 We're running around this dismal town to piss the night away


 


 So [(A5)]sing us a song we'll sing right along we'll[(C5)] get carried[(D5)] away, hey!


 


 Bridge / Solo (1:43 - 2:09)


 


 Guitar 1: Riff 1 4x then...


 


 Guitar 2: See Below


 


 Guitar 3 (Distorted): See Below


 


 Guitar 2 (After Guitar 1 plays Riff 1 4x)


 


 (1:50 - 1:53)


 


 

 
 e|--------------------------------------------------------------------|
 B|--------------------------------------------------------------------|
 G|-------------------------------------------------------7*-----------|
 D|-5--7-5-5--7-5-5--7-5-5--9-10-12--7-5-5--7-5-5--7-5-5--7*-----------|
 A|--------------------------------------------------------------------|
 E|--------------------------------------------------------------------|

 


 


 Guitar 3


 


 (1:53 - 1:56)


 


 

 
 e|--------------------------------------------------------------------|
 B|--------------------------------------------------------------------|
 G|--------------------------------------------------------------------|
 D|-2p0---------2p0----------------------------------------------------|
 A|-----0-3h5-0-----0-3h5-0--3bp0-0--3bp0-0--3bp0-0-0------------------|
 E|--------------------------------------------------------------------|

 


 


 Guitar 2


 


 (1:56 - 1:59)


 


 

 
 e|--------------------------------------------------------------------|
 B|--------------------------------------------------------------------|
 G|--------------------------------------------------------------------|
 D|-5--7p5-5-7p5-5-7p5-5-7p5-5-7p5-5-7p5-5-7p5-5-7---------------------|
 A|--------------------------------------------------------------------|
 E|--------------------------------------------------------------------|

 


 


 Guitar 3


 


 (2:00 - 2:03)


 


 

 
 e|-8-5----------------------------------------------------------------|
 B|-----8-5------------------------------------------------------------|
 G|---------7-5-7-5-------5-7-5-------5-7b-5---------------------------|
 D|-----------------7-5-7-------7-5-7---7b-5---------------------------|
 A|--------------------------------------------------------------------|
 E|--------------------------------------------------------------------|

 


 


 Guitar 2


 


 (2:03 - 2:06)


 


 (Palm muted)....................................


 

 
 e|--------------------------------------------------------------------|
 B|--------------------------------------------------------------------|
 G|-----------------------------------------------2--------------------|
 D|-2-5-2---2-------------------------------------2--------------------|
 A|-------5---5-3-5-3-2-3-2---2-------------------0--------------------|
 E|-------------------------5---5-3-5-3-2-3-2-0-3----------------------|

 


 


 Guitar 3


 


 (2:07 - 2:09)


 


 

 
 e|--------------------------------------------------------------------|
 B|--------------------------------------------------------------------|
 G|-------------5h7-7-7s9--7--9v-7v-5v---------------------------------|
 D|-------5h7-7------------------------7v------------------------------|
 A|-5h7-7--------------------------------------------------------------|
 E|--------------------------------------------------------------------|

 


 


 Ah one, two, three, four!


 


 Chorus 3 (2:10 - 2:36)


 


 Guitar 1 (2x)


 


 

 
 e|--------------------------------------------------------------------|
 B|--------------------------------------------------------------------|
 G|-7-7-7-7-5-5-2-2--7-7-7-7-5-5-2-2--2-2-2-2-5-5-7-7--2-2-2-2-5-5-7-7-|
 D|-7-7-7-7-5-5-2-2--7-7-7-7-5-5-2-2--2-2-2-2-5-5-7-7--2-2-2-2-5-5-7-7-|
 A|-5-5-5-5-3-3-0-0--5-5-5-5-3-3-0-0--0-0-0-0-3-3-5-5--0-0-0-0-3-3-5-5-|
 E|--------------------------------------------------------------------|

 


 


 (*Chord switches shown as chord names above lyrics)


 


 [(D5)]Running around a dismal town to [(C5)]piss the night [(A5)]away


 


 At the [(D5)]flip of the switch the son of a bitch they[(C5)] get carried[(A5)] away


 


 (A5 contd.) (C5) (D5)


 We're running around the dismal town to piss the night away


 


 So [(A5)]sing us a song we'll sing it along and [(C5)]get carried [(D5)]away


 


 They're [(D5)]running around this dismal town to [(C5)]piss the night [(A5)]away


 


 At the [(D5)]flip of a switch the son of a bitch they [(C5)]get carried [(A5)]away


 


 (A5 contd.) (C5) (D5)


 They're running around this dismal town to piss the night away


 


 So [(A5)]sing us a song we'll sing along and [(C5)]get carried [(D5)]away, hey hey!


 


 Outro (2:36 - 3:05)


 


 Guitar 3


 


 Riff 1 3x (2:36 - 2:56)


 


 Guitar 3 (Lightly Distorted)


 


 

 
 e|---------------------------------------------------------------------|
 B|---------------------------------------------------------------------|
 G|---------------------------------------------------------------------|
 D|-----2p0---0h2---3-2------3p2-0-2h3p2----------2p0---0h2---3-2-------|
 A|-0-0-----0-----0------0-0-------------3--3-0-0-----0-----0-----------|
 E|---------------------------------------------------------------------|

 


 


 Riff 1 Cont.


 


 

 
 e|--------------------------------------------------------------------|
 B|--------------------------------------------------------------------|
 G|--------------------------------------------------------------------|
 D|--------------------------------------------------------------------|
 A|-3p2p0-3p2p0-3p2p0-0-0----------------------------------------------|
 E|--------------------------------------------------------------------|

 


 


 Guitar 1


 


 Riff 1 (Modified) (2:56 - 3:05)


 (Let final chord ring)


 

 
 e|---------------------------------------------------------------------|
 B|---------------------------------------------------------------------|
 G|---------------------------------------2~----------------------------|
 D|-----2p0---0h2---3-2-------------------2~----------------------------|
 A|-0-0-----0-----0-----3p2p0-3p2p0-3p2p0-0~----------------------------|
 E|---------------------------------------------------------------------|


Important: The song above is NOT stored on the Chordie server. The original song is hosted at www.guitaretab.com. Chordie works as a search engine and provides on-the-fly formatting. Chordie does not index songs against artists'/composers' will. To remove this song please click here.

This song is displayed as text-only. Transposing and tuning is only available for chordpro-songs.
Rate #1 of 3 versions

Login - add to songbook

SHARE PAGE  




You need to log in to post comments