Guitar Tabs, Chords and Lyrics
Server problems seems to be fixed. Chordie has been experiencing problems with songs disappearing. These issues now seems to be fixed, but still verifying the fix. If you find anything strange, please email admin@chordie.com.


Denial  The Bones

 
 -------------------------------------------------------------------------------

Denial - The Bones
 
 -------------------------------------------------------------------------------

Tabbed by: schleichi
Email: lemmyfredericksen@yahoo.de
Tuning:standard
INTRO x
 
 e|-----------------|----------------------|----------------------|
 B|-----------------|----------------------|----------------------|
 G|------7----------|-----7-7-7-7-7-7-7-7--|----------------------|
 D|------7----------|-----7----------------|----------------------|
 A|------5----------|-----5----------------|----------------------|
 E|-----------------|----------------------|----------------------|

|
 
 e|-----------------|----------------------|----------------------|
 B|-----------------|----------------------|----------------------|
 G|--7-5-7---7-5-7--|-7-5-7----------------|----------------------|
 D|--7-5-7---7-5-7--|-7-5-7-7-7-7-7-7-7-7--|----------------------|
 A|--5-3-5---5-3-5--|-5-3-5-5-5-5-5-5-5-5--|----------------------|
 E|-----------------|----------------------|----------------------|

Chorus:
H[d]ow come I feel so l[Bb]ost and so lonely[F] When you're right here [C]with me
[d]I should feel secu[Bb]rity[F] When you're right here [C]by my side
BRIDGE
[d-C-d] [d-C-d-Bb]  
Well I t[F]hought that I could j[C]ust lean back And e[d]njoy the times that we h[Bb]ave
I've been sta[F]nding on the porch of your l[C]ive
but you n[d]ever, never seem to be[Bb] there
When I s[F]pend my time with you I'm so l[C]onely I could die
Why d[d]o I, do I waste my[Bb] time
REPEAT CHORUS + 2x Bridge
Like Verse 1
Well baby I am lost, baby I am blue
Can't you see I'm losing my grip to you
Well I've given you my heart and I gave you my soul
I even gave you rock'n'roll
Yeah, baby please can't you see that you're everything to me
And its burning, burning through to my soul
Repeat CHORUS
[d] [Bb] [F] [C]  
 
 e|---------------------------------------------------------------------------|
 B|--------------6-5----------------------------------------------------------|
 G|--7-7-7-7-7-7------7-5-----------------5------5---5---5---5---5------------|
 D|---------------------------------5-7-5---7-----7---7---7---7---7-----------|
 A|-----------------------------5-8-------------------------------------------|
 E|---------------------------8-----------------------------------------------|

[d] [d] [d] [d]  
 
 e|---10-------------10-------------10-------------10-------------------------|
 B|-10--13p10-10---10--13p10-10---10--13p10-10---10--13p10-10-----------------|
 G|---------------------------------------------------------------------------|
 D|---------------------------------------------------------------------------|
 A|---------------------------------------------------------------------------|
 E|---------------------------------------------------------------------------|

[Bb] [F] [C]  
 
 e|---------------------------------------------------------------------------|
 B|---13-----------------------10-13--13p10-13p10-13p10-13p10-13-10-----------|
 G|---12fb-(x8)----------10-12------------------------------------------------|
 D|-----------------10-12-----------------------------------------------------|
 A|---------------12----------------------------------------------------------|
 E|---------------------------------------------------------------------------|

[d] [Bb]  
 
 e|------15p13------15p13-------15p13------15p13----15p13------15p13-------15p13------15p13--|
 B|--//15-----15-15-------15-15------15-15--------15-----15-15-------15-15------15-15--------|
 G|------------------------------------------------------------------------------------------|
 D|------------------------------------------------------------------------------------------|
 A|------------------------------------------------------------------------------------------|
 E|------------------------------------------------------------------------------------------|

[F] [C]  
 
 e|--15p13----13-------10-----------------------------------------------------|
 B|-------15----15p13----13p10--13p10----10-----------------------------------|
 G|----------------------------------12----12p10--12~~12~~12~~~~12~~~12~~12~~~|
 D|---------------------------------------------------------------------------|
 A|---------------------------------------------------------------------------|
 E|---------------------------------------------------------------------------|
 e|---------------------------------------------------------------------------|
 B|---------------------------------------------------------------------------|
 G|---------------------------------------------------------------------------|
 D|---------------------------------------------------------------------------|
 A|---------------------------------------------------------------------------|
 E|---------------------------------------------------------------------------|

| / slide up
| \ slide down
| h hammer-on
| p pull-off
| ~ vibrato
| + harmonic
| x Mute note
=============================================================================
Chorus:
How come I feel so lost and so lonely
When you're right here with me
I should feel security
When you're right here by my side
Well I thought that I could just lean back
And enjoy the times that we have
I've been standing on the porch of your live
but you never, never seem to be there
When I spend my time with you I'm so lonely I could die
Why do I, do I waste my time
Well baby I am lost, baby I am blue
Can't you see I'm losing my grip to you
Well I've given you my heart and I gave you my soul
I even gave you rock'n'roll
Yeah, baby please can't you see that you're everything to me
And its burning, burning through to my soul

Important: The song above is NOT stored on the Chordie server. The original song is hosted at www.guitaretab.com. Chordie works as a search engine and provides on-the-fly formatting. Chordie does not index songs against artists'/composers' will. To remove this song please click here.

Text color:
Chord color:
Chord grids: 
Font size:    
Page size: 

Bb C F
Rate #1 of 2 versions

Jango Player

Login - add to songbook

SHARE PAGE  



You need to log in to post comments