Guitar Tabs, Chords and Lyrics
Server problems seems to be fixed. Chordie has been experiencing problems with songs disappearing. These issues now seems to be fixed, but still verifying the fix. If you find anything strange, please email admin@chordie.com.


Going Nowhere  The Bones

 
 -------------------------------------------------------------------------------

Going Nowhere - The Bones
 
 -------------------------------------------------------------------------------

Tabbed by: schleichi
Email: lemmyfredericksen@yahoo.de
Tuning: standard
INTRO
x3 G E x2 D
 
 e|-----------------------------|-----------------|--------------------|
 B|-----------------------------|-----/8------/5--|----1-1-------------|
 G|-----------------------------|--/7------/4-----|----2-2-------------|
 D|--9-9--9-9-9-9--7-7--7-7-7-7-|-----------------|--------------------|
 A|--7-7--7-7-7-7--5-5--5-5-5-5-|-----------------|--------------------|
 E|-----------------------------|-----------------|--------------------|

part I Part II
A D 2x
 
 e|------/5-------/5-------/5-------/5--3---|---A-------------------D--A-------------A--F#-G-G#-A-----|
 B|-/5-7-/5--/5-7-/5--/5-7-/5--/5-7-/5--3---|-5--5-7p5-8p5-7--8p5-7-5--5--5-7p5-8p5--8-5--------------|
 G|-----------------------------------------|-----------------------5-------------------7-5-7-5-------|
 D|-----------------------------------------|---------------------------------------------------7~~~--|
 A|-----------------------------------------|---------------------------------------------------------|
 E|-----------------------------------------|---------------------------------------------------------|

part III
verse 1 - only A5 during the whole verse
 
 A cold wind has come (* (*e|---0-------------|
 I guess I'm wasting my time B|-2---2-0---------|
 To wonder if you're sorry or not G|----------2~~~---|

For leaving what we'd begun
Chorus:
[E]I'm going nowhere
A** x2
 
 Got stuck in glue when I fell for you, Oh yeah **D|-2-2-----2-2-----2-7-7-|
 E A|-0-0-3-4-0-0-3-4-0-5-5-|
 I'm going nowhere E|-----------------------|

A**
I'm totally lost and you don't seem to care
A (chord does not change)
Today is dead and gone*
Tomorrow's outta sight
Never seen a dream come true
Let the devil take tonight
 
 ---------Repeat Chorus------|
 ---------------------------|repeat part I, II and III of the intro twice

You stole that stinkin' part
That used to be my heart, oh baby
I saw you chewing for a while
Than you nailed it to your wall
 
 --------Repeat Chorus-Twice----

[G]you don't seem to [E]care
[G]you don't seem to [E]care Anymo[A]re
hell, that was difficult. it took me 3 hours, think about it, if you rate this tab :)
| / slide up
| \ slide down
| h hammer-on
| p pull-off
| ~ vibrato
| + harmonic
| x Mute note
===============================================================================

Important: The song above is NOT stored on the Chordie server. The original song is hosted at www.guitaretab.com. Chordie works as a search engine and provides on-the-fly formatting. Chordie does not index songs against artists'/composers' will. To remove this song please click here.

Text color:
Chord color:
Chord grids: 
Font size:    
Page size: 

A E G
Rate #1 of 2 versions

Jango Player

Login - add to songbook

SHARE PAGE  




You need to log in to post comments