Guitar Tabs, Chords and Lyrics
Server problems seems to be fixed. Chordie has been experiencing problems with songs disappearing. These issues now seems to be fixed, but still verifying the fix. If you find anything strange, please email admin@chordie.com.


Chrome, Smoke and Thunderroads  The Bones

 
 ------------------------------------------------------------------------------

Chrome Smoke And Thunderroads - The Bones
 
 ------------------------------------------------------------------------------

Tabbed by: Schleichi
Email: lemmyfredericksen@yahoo.de
Tuning: standard
VERSE 1
To me some rollin' dynam[G]ite To all the others - a p[C]ile of rusty junk
Like a drinkin' n[D]ight Just fill her u[G]p![C#] [D]
Lady Bad Luck built for s[G]peed Time to take the re[C]aper for a spin
Pedal-bop and scr[D]eams the world's a blur to m[G]e[C] [G]
Chorus:
[C]Let's go - I know [G]No turning back
h
I've picked my card I put the pedal down
And I'm o[C]ff at the speed of s[D]ound
LIKE VERSE 1
Fast livin', pumpin' gas
Glowing tyres and smokey Thunderroads
Blood and chrome romance
Roadkills everywhere
Going faster down the drain
Just shut up, lean back and face the flames
Roll the dices and pray
For no ball & chain
-----Repeat CHORUS
No I ain't g[C]onna stay I've gotta g[D]et away
G h
I've gotta oneway ticket right outta here
Let's h[C]it the streets and le[D]ave this world b[G]ehind
No I ain't g[C]onna stay I've g[D]otta get away
G h
I'm like a loaded gun and I just can't wait
For a k[C]iss of steel to l[D]eave this world behi[G]nd
SOLO
[G] [C]  
 
 e|--------------------------------------0-3---0-3---0-3---0-3---0-3----------|
 B|-0-3-5--0-3-5--0-3-5--0-3-5--0-3-5---3-----3-----3-----3-----3-------------|
 G|---------------------------------------------------------------------------|
 D|---------------------------------------------------------------------------|
 A|---------------------------------------------------------------------------|
 E|---------------------------------------------------------------------------|

Fb= full bend
[C] [D] [G] [C] [G]  
 
 e|--------------------------------3------0-----------------------------------|
 B|---/7--10-Fb-7---/5--8-Fb-5----5--5---3--3-0-------------------------------|
 G|-------12------------10----------------------0-----------------------------|
 D|---------------------------------------------------------------------------|
 A|---------------------------------------------------------------------------|
 E|---------------------------------------------------------------------------|

C G h C D
 
 e|---------------------------------------------------------------------------|
 B|----------5--8-8-5-----5----------7---------------8---------10-------------|
 G|---5-5-5-5---------7-7---7--------9-Fb+r--x6------10-Fb+r---12-Fb+r--------|
 D|---------------------------5----------(release)----------------------------|
 A|---------------------------------------------------------------------------|
 E|---------------------------------------------------------------------------|

LIKE VERSE 1
On the highway straight to Hell
I don't look aside, I do not have to hide
Try to catch me alive
Party at the scene of the crime
Finally the finish line
The race is over and I guess that this is it
Done with Cruisn' High
And you're still alive ?!
| / slide up
| \ slide down
| h hammer-on
| p pull-off
| ~ vibrato
| + harmonic
| x Mute note
==============================================================================

Important: The song above is NOT stored on the Chordie server. The original song is hosted at www.guitaretab.com. Chordie works as a search engine and provides on-the-fly formatting. Chordie does not index songs against artists'/composers' will. To remove this song please click here.

Text color:
Chord color:
Chord grids: 
Font size:    
Page size: 

C C# D G
Rate #1 of 2 versions

Login - add to songbook

SHARE PAGE  




You need to log in to post comments