Guitar Tabs, Chords and Lyrics
Server problems seems to be fixed. Chordie has been experiencing problems with songs disappearing. These issues now seems to be fixed, but still verifying the fix. If you find anything strange, please email admin@chordie.com.


You and Me Both  The Classic Crime

Phoenix (2012)
Tabbed by thefletch13
Tuning: 1/2 step down
Note: The G* and A* in the chorus are played one octave up
[Bm]  
[Bm]The guardrail is tempting me
[A]Standing like a sentry to the left of me
[Em]Its guarding adventure that certain to be [G]life threatening
[Bm]Life threatening
[Bm]I need a tragedy to wake me
[Em]from perpetual dreaming, the proverbial "pinch me"
[D]I'm so sick of sleeping
[F#m]I'm so sick of sleeping
[Bm]And you wonder why my [G]eyes don't leave my phone
[D](oh whoa oh [A]oh oh)
[Bm]It's no wonder that you [G]feel like you're alone ([D]alone[A])
I think I need a new [Bm]story
G* D
One where I take on the world
A* Bm
The one I'm living is boring
[G]It's killing you and me both
[Bm] [Em] [D]  
[Bm]The car crash in front of me
[A]Pulls me back from deep and desperate fantasy
[Em]Snaps me wide awake to see the horrible scene
[G]What's happening?
[F#m]What's happening?
[Bm]Is this the tragedy I asked for?
[Em]Is this blood on my hands a consequence of my own war?
[D]I'm so sick of sleeping
[F#m]I'm so sick of needing more
[Bm]And you wonder why my [G]eyes don't leave my phone
[D](oh whoa oh [A]oh oh)
[Bm]It's no wonder that you [G]feel like you're alone ([D]alone[A])
I think I need a new [Bm]story
G* D
One where I take on the world
A* Bm
The one I'm living is boring
[G]It's killing you and me both
Play 4 times
 
 e|-2----2----2-0-2----22----2-0-2--7----7----7-7-7--55----9--9-9--9--10\----|
 B|-3----3----3-2-3----33----3-2-3--8----8----8-8-8--77----10-1010-10-12\----|
 G|-4----4----4-2-4----44----4-2-4--9----9----9-9-9--77----9--9-9--9--11\----|
 D|-4----4----4-2-4----44----4-2-4--9----9----9-9-9--77----------------------|
 A|-2-xx-2-xx-2-0-2-xx-22-xx-2-0-2--7-xx-7-xx-7-7-7--55-xx-------------------|
 E|-------------^--------------^---------------------------------------------|

| |
1st time through, these are Bm instead of A.
[G]And you watch every [A]time
As I [F#m]give myself to [Bm]death and neglect [G]life
And [G#m]I blindly [A]desert the [A#m]plot line you deserve
[Bm]And you wonder why my [G]eyes don't leave my phone
[D](oh whoa oh [A]oh oh)
[Bm]It's no wonder that you [G]feel like you're alone ([D]alone[A])
I think I need a new [Bm]story
G* D
One where I take on the world
A* Bm
The one I'm living is boring
[G]It's killing you and me both[Bm]
[G]It's killing you and me both[Bm]
[G]It's killing you and me both
Play twice
 
 e|-2----2----2-0-2----22----2-0-2--7----7----7-7-7--55----9--9-9--9--10\----|
 B|-3----3----3-2-3----33----3-2-3--8----8----8-8-8--77----10-1010-10-12\----|
 G|-4----4----4-2-4----44----4-2-4--9----9----9-9-9--77----9--9-9--9--11\----|
 D|-4----4----4-2-4----44----4-2-4--9----9----9-9-9--77----------------------|
 A|-2-xx-2-xx-2-0-2-xx-22-xx-2-0-2--7-xx-7-xx-7-7-7--55-xx-------------------|
 E|--------------------------------------------------------------------------|


Important: The song above is NOT stored on the Chordie server. The original song is hosted at www.guitaretab.com. Chordie works as a search engine and provides on-the-fly formatting. Chordie does not index songs against artists'/composers' will. To remove this song please click here.

Text color:
Chord color:
Chord grids: 
Font size:    
Page size: 

A A#m Bm D Em F#m G G#m
Rate #1 of 3 versions

Login - add to songbook

SHARE PAGE  



You need to log in to post comments