Guitar Tabs, Chords and Lyrics
Server problems seems to be fixed. Chordie has been experiencing problems with songs disappearing. These issues now seems to be fixed, but still verifying the fix. If you find anything strange, please email admin@chordie.com.


All I Need Is You  The Click Five

Intro 1: guitar 1: G Am C D
h-hammer on, p-pull off
 
 Guitar 2: e-----10-------------------------------------|
 b-8----------8----10-------------------------|
 g---7----------7---------7-h9----9-9-p7-9----|p7

Verse 1:
You're sca[G]red it sh[A]ows been the[C]re
You're not pre[D]pared to be[G]
In lo[A]ve with m[C]e
So soon cause you[D]'ve been t[Am]hrough enough to h[Bm]ave
S[C]omething hold you b[D]ack
Chorus 1:
We don't n[Em]eed to go that fa[C]r
Let's hold [G]on to where we a[D]re
If it's r[Em]eal we'll make it thr[C]ough
Cause a[A]ll I need is y[G]ou
Intro 2: guitar 1: G Am C D G Am C D
 
 guitar 2:e-----10-------------------------------------|
 b-8----------8----10-------------------------|
 g---7----------7---------7-h9----9------7-h9-|
 d----------------------------------7-h9------|
 e-----10-------------------------------------|
 b-8----------8----10-------------------------|
 g---7----------7---------7-h9----9-9-p7-9-p7-|
 guitar 2 during verse 2: e---10--7- (11-|x)
 b-8------------|

Verse 2:
They s[G]ay don't w[A]aste your t[C]ime
They're obvio[D)]usly blind[G]
So let'[A]s forget[C]
The words the tho[D]ughts they [Am]put into your h[Bm]ead
D[C]on't give up just [D]yet
Chorus 2:
We don't ne[Em]ed to go that f[C]ar
Let's hold [G]on to where we a[D]re
If it's r[Em]eal we'll make it th[C]rough
Cause a[Am]ll I n[C]eed is y[D]ou
We don't n[Em]eed the world right n[C]ow
We got t[G]ime to work it [D]out
Hold on t[Em]ight, I'll hold on t[C]oo
Cause a[Am]ll I n[C]eed is
Bridge:
Ba[D]by, maybe we should st[C]art somewhere (gotta start somewh[D]ere)
And b[D]aby, [Am]let me in your h[Bm]eart
Bef[C]ore we fall ap[D]art
Intro 2:
Chorus 3:
We don't n[Em]eed to go too f[C]ar
Let's hold o[G]n to who we a[D]re
If it's r[Em]eal we'll make it thr[C]ough
Cause a[Am]ll I need is y[D]ou
We don't n[Em]eed the world right n[C]ow
We got t[G]ime to work it o[D]ut
Hold on t[Em]ight, I'll hold on t[C]oo
Cause [Am]all I need is y[G]ou
[A] [C] All I ne[D]ed is y[G]ou
A C D G(let ring)
All I need is you
 
 guitar 2 for last two lines:e-----10--------------------------------------|
 b-8----------8----10--------------------------|
 g---7----------7---------7-h9----9------7-h9--|
 d----------------------------------7-h9-------|
 e-----10---------------------------------------|
 b-8----------8----10---------------------------|
 g---7----------7---------7-h9----9-9-p7-9-p7-8-|(let ring)


Important: The song above is NOT stored on the Chordie server. The original song is hosted at www.guitaretab.com. Chordie works as a search engine and provides on-the-fly formatting. Chordie does not index songs against artists'/composers' will. To remove this song please click here.

Text color:
Chord color:
Chord grids: 
Font size:    
Page size: 

A Am Bm C D Em G
Rate #1 of 7 versions

Login - add to songbook

SHARE PAGE  




You need to log in to post comments