Guitar Tabs, Chords and Lyrics
Login is temporarily disabled for some users. Do not panic. Will be back in an hour or two. DO NOT REREGISTER!!


Panic Attack!  The Fall of Troy

I Just put the notes in here the rythm can be heard out by ear.
Intro with wah:
 
 E-------------------------------------------------------------------------||
 B-------------------------------------------------------------------------||
 G---10-10-x-x-9-x-x-2-2--3-2h3p2p0--10-10-x-x-9-x-x-5-5--9-7--------------||
 D---------x-x---x-x-----------------------x-x---x-x-----------------------||
 A---------x-x---x-x-----------------------x-x---x-x-----------------------||
 E---10-10-x-x-8-x-x-1-1-------------10-10-x-x-8-x-x-5-5--8-6--------------||
 E-------------------------------------------------------------------------||
 B-------------------------------------------------------------------------||
 G---10-10-x-x-9-x-x-2-2--3-2h3p2p0--10-10-9-9-7-7-6-----------------------||
 D---------x-x---x-x-------------------------------------------------------||
 A---------x-x---x-x-------------------------------------------------------||
 E---10-10-x-x-8-x-x-1-1-------------10-10-8-8-6-6-5-----------------------||

Chorus 1:
 
 E-------------------------------------------------------------------------||
 B-------------------------------------------------------------------------||
 G---10-10-x-x-9h10p9-2-2--3-2h3p2p0--10-10-x-x-9-x-x-5-5--9-7-------------||
 D---------x-x------------------------------x-x---x-x----------------------||
 A---------x-x------------------------------x-x---x-x----------------------||
 E---10-10-x-x-8------1-1-------------10-10-x-x-8-x-x-5-5--8-6-------------||
 E-------------------------------------------------------------------------||
 B-------------------------------------------------------------------------||
 G---10-10-x-x-9h10p9-2-2--3-2h3p2p0--10-10-9-9-7-7-6----------------------||
 D---------x-x-------------------------------------------------------------||
 A---------x-x-------------------------------------------------------------||
 E---10-10-x-x-8------1-1-------------10-10-8-8-6-6-5----------------------||

Chorus 2: (This can also be played with full chords)
 
 E-------------------------------------------------------------------------||
 B-------------------------------------------------------------------------||
 G---10-10--9-9h10p9-2-2--3-2h3p2p0--10-10--9-9-12-9--5-5--9-7-------------||
 D-------------------------------------------------------------------------||
 A-------------------------------------------------------------------------||
 E---10-10--8-8------1-1-------------10-10--8-8-------5-5--8-6-------------||
 E-------------------------------------------------------------------------||
 B-------------------------------------------------------------------------||
 G---10-10--9-9h10p9-2-2--3-2h3p2p0--10-10-9-9-7-7-6/----------------------||
 D-------------------------------------------------------------------------||
 A-------------------------------------------------------------------------||
 E---10-10--8-8------1-1-------------10-10-8-8-6-6-5/----------------------||

Chorus 3:
 
 E-------------------------------------------------------------------------||
 B-------------------------------------------------------------------------||
 G-------------------------------------------------------------------------||x2
 D-------------------------------------------------------------------------||
 A-----------------8p07p06p0-----------------------------------------------||
 E--8h10p8p0-6p0-0-----------8h10p8p0-6p0-0-5h6p0-1~-----------------------||

(This part is a bit different from the first especially the rythm, so you have to hear
out)
 
 E-------------------------------------------------------------------------||
 B-------------------------------------------------------------------------||
 G-------------------------------------------------------------------------||x2
 D-------------------------------------------------------------------------||
 A-----------------8p07p06p0-----------------------------------------------||
 E--8h10p8p0-6p0-0-----------8h10p8p0-6h8p0-5h6p0-1~-----------------------||

Bridge:
 
 E-------------------------------------------------------------------------||
 B-------------------------------------------------------------------------||
 G--5h6p5h6p5h6p5-8h9p8h9p8h9p8-11h12p11h12p11h12p11-14h15p14h15p14h15p14--||
 D-------------------------------------------------------------------------||
 A-------------------------------------------------------------------------||
 E-------------------------------------------------------------------------||

Chorus 2:
 
 E-------------------------------------------------------------------------||
 B-------------------------------------------------------------------------||
 G---10-10--9-9h10p9-2-2--3-2h3p2p0--10-10--9-9-12-9--5-5--9-7-------------||
 D-------------------------------------------------------------------------||
 A-------------------------------------------------------------------------||
 E---10-10--8-8------1-1-------------10-10--8-8-------5-5--8-6-------------||
 E-------------------------------------------------------------------------||
 B-------------------------------------------------------------------------||
 G---10-10--9-9h10p9-2-2--3-2h3p2p0--10-10-9-9-7-7-6/----------------------||
 D-------------------------------------------------------------------------||
 A-------------------------------------------------------------------------||
 E---10-10--8-8------1-1-------------10-10-8-8-6-6-5/----------------------||
 E-------------------------------------------------------------------------||
 B-------------------------------------------------------------------------||
 G---10-10--9-9h10p9-2-2--3-2h3p2p0--10-10--9-9-12-9--5-5--9-7-------------||
 D-------------------------------------------------------------------------||
 A-------------------------------------------------------------------------||
 E---10-10--8-8------1-1-------------10-10--8-8-------5-5--8-6-------------||
 E-------------------------------------------------------------------------||
 B-------------------------------------------------------------------------||
 G---10-10--9-9h10p9-2-2--3-2h3p2p0--10-10-9-9-7-7-6/----------------------||
 D-------------------------------------------------------------------------||
 A-------------------------------------------------------------------------||
 E---10-10--8-8------1-1-------------10-10-8-8-6-6-5/----------------------||

Chorus 3:
 
 E-------------------------------------------------------------------------||
 B-------------------------------------------------------------------------||
 G-------------------------------------------------------------------------||x2 (Get 

in the second turn)
 
 D-------------------------------------------------------------------------||
 A-----------------8p07p06p0-----------------------------------------------||
 E--8h10p8p0-6p0-0-----------8h10p8p0-6p0-0-5h6p0-1~-----------------------||

[B]  
 
 E-------------------------------------------------------------------------||
 B-------------------------------------------------------------------------||
 G--------------------10-----9-----+7--------------------------------------||
 D--------------------10-----9---------------------------------------------||
 A10-12-12-12-8-7-7-7-8------7---------------------------------------------||
 E-8-10-10-10-6-5-5-5----5-5---5-5-----------------------------------------||

[)] x2
[B] [)]  
 
 E-------------------------------------------------------------------------||
 B-------------------------------------------------------------------------||
 G------------------------------------------+7-----------------------------||
 D-------------------------------------------------------------------------||
 A10-12-12-12-12-12-12-12-12--8-7--5-7--3----------------------------------||
 E-8-10-10-10-10-10-10-10-10--6-5--3-5--1-0--------------------------------||

Bridge:
 
 E-------------------------------------------------------------------------||
 B-------------------------------------------------------------------------||
 G--5h6p5h6p5h6p5-8h9p8h9p8h9p8-11h12p11h12p11h12p11-14h15p14h15p14h15p14--||
 D-------------------------------------------------------------------------||
 A-------------------------------------------------------------------------||
 E-------------------------------------------------------------------------||

The Rest Of The Song will be uploaded soon,I just have no time to tab it in the next days.

Important: The song above is NOT stored on the Chordie server. The original song is hosted at www.guitaretab.com. Chordie works as a search engine and provides on-the-fly formatting. Chordie does not index songs against artists'/composers' will. To remove this song please click here.

Text color:
Chord color:
Chord grids: 
Font size:    
Page size: 

B
Rate #1 of 5 versions

Jango Player

Login - add to songbook

SHARE PAGE  




You need to log in to post comments