Guitar Tabs, Chords and Lyrics
Server problems seems to be fixed. Chordie has been experiencing problems with songs disappearing. These issues now seems to be fixed, but still verifying the fix. If you find anything strange, please email admin@chordie.com.


ROCKSTAR NAILBOMB!   The Fall of Troy

 
 |-------5-(5)----------5---------7-|-x-5----------5-(5)----------5-x-7-|
 |-------6-(6)----------6---------8-|-x-6----------6-(6)----------6-x-8-|
 |----------------------------------|-----------------------------------|
 |----------------------------------|-----------------------------------|
 |----------------------------------|-----------------------------------|
 |----------------------------------|-----------------------------------|

 


 |


 | Gtr II


 | S S S S +S S S S S E S S S S S S E S S S S S +S S S S S S S S


 

 
 |-------5-(5)----------5---------7-|-x-5----------5-(5)----------5-x-7-|
 |-6p5p0-6-(6)----6p5p0-6---6p5p0-8-|-x-6---6--5-0-6-(6)----6p5p0-6-x-8-|
 |----------------------------------|-----------------------------------|
 |----------------------------------|-----------------------------------|
 |----------------------------------|-----------------------------------|
 |----------------------------------|-----------------------------------|

 


 


 S E S E. S +S E. S S S S


 

 
 |-x-5------------5-(5)-----------5-x-7---|
 |-x-6------------6-(6)-----------6-x-8---|
 |----------------------------------------|
 |----------------------------------------|
 |----------------------------------------|
 |----------------------------------------|

 


 |


 | S E S S S S S +S S S S S S S S


 

 
 |---x-5-------------5--(5)---------5-x-7-|
 |---x-6------6p5p0--6--(6)---6p5-0-6-x-8-|
 |----------------------------------------|
 |----------------------------------------|
 |----------------------------------------|
 |----------------------------------------|

 


 


 S E S E. S +S E. Q E. S +S E. S E S E. S


 

 
 |-x-5---------5-(5)--------------|----5-(5)----------5---------7-|
 |-x-6---------6-(6)--------------|----6-(6)----------6---------8-|
 |--------------------------------|-------------------------------|
 |--------------------------------|-------------------------------|
 |--------------------------------|-------------------------------|
 |--------------------------------|-------------------------------|

 


 |


 | S E S S S S S +S S S S S E. E. S +S S S S S E S S S S S


 

 
 |-x-5---------5-(5)----------11\-|----5-(5)----------5---------7-|
 |-x-6---6p5p0-6-(6)----6p5p0-----|----6-(6)----6p5p0-6---6p5p0-8-|
 |--------------------------------|-------------------------------|
 |--------------------------------|-------------------------------|
 |--------------------------------|-------------------------------|
 |--------------------------------|-------------------------------|

 


 


 S E S E. S +S E. S S S S


 

 
 |-x-5----------5-(5)----------5-x-7--|
 |-x-6----------6-(6)----------6-x-8--|
 |------------------------------------|
 |------------------------------------|
 |------------------------------------|
 |------------------------------------|

 


 |


 | S E S S S S S +S S S S S S S S


 

 
 |-x-5----------5-(5)----------5-x-7--|
 |-x-6---6--5-0-6-(6)----6p5p0-6-x-8--|
 |------------------------------------|
 |------------------------------------|
 |------------------------------------|
 |------------------------------------|

 


 


 S E S S S S S +S S S S S S S S S E S S S S S +S S S S S S S S


 

 
 |-x-5---------5-(5)---------5-x-7-|-x-5---------5-(5)---------5-x-7-|
 |-x-6---6p5p0-6-(6)---6p5p0-6-x-8-|-x-6---6p5p0-6-(6)---6p5p0-6-x-8-|
 |---------------------------------|---------------------------------|
 |---------------------------------|---------------------------------|
 |---------------------------------|---------------------------------|
 |---------------------------------|---------------------------------|

 


 |


 | S E S S S S S +S S S S S S S S S E S S S S S +S S S S S S S S


 

 
 |-x-5---------5-(5)---------5-x-7-|-x-5---------5-(5)---------5-x-7-|
 |-x-6---6p5p0-6-(6)---6p5p0-6-x-8-|-x-6---6p5p0-6-(6)---6p5p0-6-x-8-|
 |---------------------------------|---------------------------------|
 |---------------------------------|---------------------------------|
 |---------------------------------|---------------------------------|
 |---------------------------------|---------------------------------|

 


 


 S E. +H Q H E T T S S S S S


 

 
 |-x-5--(5)----------|-------------------------|
 |-x-6--(6)----------|-------------------------|
 |-------------------|--------x-x-x-x-x-x-x----|
 |-------------------|--------x-x-x-x-x-x-x----|
 |-------------------|--------x-x-x-x-x-x-x----|
 |-------------------|-------------------------|

 


 |


 | S E. +H. W


 

 
 |-x-5--(5)/---------|-------------------------|
 |-x-6--(6)----------|-------------------------|
 |-------------------|-------------------------|
 |-------------------|-------------------------|
 |-------------------|-------------------------|
 |-------------------|-------------------------|

 


 


 Verse


 $


 S S S S S S S S S S S S S S S S S S S S S S S S S S S S S S S S


 

 
 |---------------------------------|---------------------------------|
 |---------------------------------|---------------------------------|
 |-7-x-x-7-x-x-7-x-x-7-x-x-7-x-x-x-|-7-x-x-7-x-x-7-x-x-7-x-x-7-x-x-x-|
 |-9-x-x-9-x-x-9-x-x-9-x-x-9-x-x-x-|-9-x-x-9-x-x-9-x-x-9-x-x-9-x-x-x-|
 |-7-x-x-7-x-x-7-x-x-7-x-x-7-x-x-x-|-7-x-x-7-x-x-7-x-x-7-x-x-7-x-x-x-|
 |---------------------------------|---------------------------------|

 


 |


 | W W


 

 
 |---------------------------------|---------------------------------|
 |---------------------------------|---------------------------------|
 |---------------------------------|---------------------------------|
 |---------------------------------|---------------------------------|
 |---------------------------------|---------------------------------|
 |---------------------------------|---------------------------------|

 


 


 S S S S S S S S S S S S S S S S S S S S S S S S S S S S S S S S


 

 
 |---------------------------------|----------------------------------------|
 |-7-x-x-7-x-x-7-x-x-7-x-x-7-x-x-x-|-8-x-x-8-x-x-8-x-x-10-10-10-10-x-x-x----|
 |-7-x-x-7-x-x-7-x-x-7-x-x-7-x-x-x-|-7-x-x-7-x-x-7-x-x--7--7--7--7-x-x-x----|
 |-7-x-x-7-x-x-7-x-x-7-x-x-7-x-x-x-|-7-x-x-7-x-x-7-x-x--7--7--7--7-x-x-x----|
 |---------------------------------|----------------------------------------|
 |---------------------------------|----------------------------------------|

 


 |


 | W W


 

 
 |---------------------------------|----------------------------------------|
 |---------------------------------|----------------------------------------|
 |---------------------------------|----------------------------------------|
 |---------------------------------|----------------------------------------|
 |---------------------------------|----------------------------------------|
 |---------------------------------|----------------------------------------|

 


 


 S S S S S S S S S S S S S S S S S S S S S S S S S S S S S S S S


 

 
 |---------------------------------|---------------------------------|
 |---------------------------------|---------------------------------|
 |-7-x-x-7-x-x-7-x-x-7-x-x-7-x-x-x-|-7-x-x-7-x-x-7-x-x-7-x-x-7-x-x-x-|
 |-9-x-x-9-x-x-9-x-x-9-x-x-9-x-x-x-|-9-x-x-9-x-x-9-x-x-9-x-x-9-x-x-x-|
 |-7-x-x-7-x-x-7-x-x-7-x-x-7-x-x-x-|-7-x-x-7-x-x-7-x-x-7-x-x-7-x-x-x-|
 |---------------------------------|---------------------------------|

 


 |


 | S S S S S S S S S S S S S S S S S S S S S S S S S S S S S S S S


 |-5p3p0h5p3p0h5p3p0h5p3p0h5p3h5p3-|-7p5p3h7p5p3h7p5p3h7p5p3h7p5h7p5-|


 

 
 |---------------------------------|---------------------------------|
 |---------------------------------|---------------------------------|
 |---------------------------------|---------------------------------|
 |---------------------------------|---------------------------------|
 |---------------------------------|---------------------------------|

 


 


 S S S S S S S S S S S S S S S S S S S S S S S S S S S S S S S S


 

 
 |---------------------------------------|---------------------------------------------------|
 |--7-x-x--7-x-x--7-x-x--7-x-x--7-x--x-x-|--8--x-x--8--x-x--8---x-----x-10-10-10-10-x-x-x----|
 |--7-x-x--7-x-x--7-x-x--7-x-x--7-x--x-x-|--7--x-x--7--x-x--7---x-----x--7--7--7--7-x-x-x----|
 |--7-x-x--7-x-x--7-x-x--7-x-x--7-x--x-x-|--7--x-x--7--x-x--7---x-----x--7--7--7--7-x-x-x----|
 |---------------------------------------|---------------------------------------------------|
 |---------------------------------------|---------------------------------------------------|

 


 |


 | S S S S S S S S S S S S S S S S S S S S S S E +H


 

 
 |-10p8p7h10p8p7h10p8p7h10p8p7h10p8h10p8-|-12p10p8h12p10p8-14-(14)b15------------------------|
 |---------------------------------------|---------------------------------------------------|
 |---------------------------------------|---------------------------------------------------|
 |---------------------------------------|---------------------------------------------------|
 |---------------------------------------|---------------------------------------------------|
 |---------------------------------------|---------------------------------------------------|

 


 


 Chorus-Thing


 S S S S S S S S S S S S T T E S


 

 
 ||------------12p0---------15p0-15p12p0--12-|
 ||o-8p0------------10h12p0------------------|
 ||------7h9p0-------------------------------|
 ||------------------------------------------|
 ||o-----------------------------------------|
 ||------------------------------------------|

 


 |


 | S S S S S S S S S S S S T T E S


 

 
 ||------------12p0---------15p0-15p12p0--12-|
 ||o-8p0------------10h12p0------------------|
 ||------7h9p0-------------------------------|
 ||------------------------------------------|
 ||o-----------------------------------------|
 ||------------------------------------------|

 


 


 |--3--|


 +S S S S S S S S S S S S S S S S S


 

 
 |-(12)p0-10h12p10p0-7p5p0-3p2p0------------|
 |-------------------------------5p0h3h5-0--|
 |------------------------------------------|
 |------------------------------------------|
 |------------------------------------------|
 |------------------------------------------|

 


 |


 | |--3--|


 | +S S S S S S S S S S S S S S S S S


 

 
 |-(12)p0-10h12p10p0-7p5p0-3p2p0------------|
 |-------------------------------5p0h3h5-0--|
 |------------------------------------------|
 |------------------------------------------|
 |------------------------------------------|
 |------------------------------------------|

 


 


 S S S S S S S S S S S S E.S


 

 
 |-----------12p0---------15p0-17p0-|
 |-8p0------------10h12p0-----------|
 |-----7h9p0------------------------|
 |----------------------------------|
 |----------------------------------|
 |----------------------------------|

 


 |


 | S S S S S S S S S S S S E.S


 

 
 |-----------12p0---------15p0-17p0-|
 |-8p0------------10h12p0-----------|
 |-----7h9p0------------------------|
 |----------------------------------|
 |----------------------------------|
 |----------------------------------|

 


 


 1. 2.


 D.S. al To Coda


 S S S S S S S S S S S S Q S S S S S S S S +Q Q


 

 
 |-12p0-12p0-12s17-0-19p0---22p0-22b24---||-12p0-12p0-12s17-0-19-(19)-------|
 |--------------------------------------o||---------------------------------|
 |---------------------------------------||---------------------------------|
 |---------------------------------------||---------------------------------|
 |--------------------------------------o||---------------------------------|
 |---------------------------------------||---------------------------------|

 


 |


 | S S S S S S S S S S S S Q S S S S S S S S +Q Q


 

 
 |-12p0-12p0-12s17-0-19p0---22p0-22b24---||-12p0-12p0-12s17-0-19-(19)-------|
 |--------------------------------------o||---------------------------------|
 |---------------------------------------||---------------------------------|
 |---------------------------------------||---------------------------------|
 |--------------------------------------o||---------------------------------|
 |---------------------------------------||---------------------------------|

 


 


 Bridge-Thing


 &


 S S S S S S S S S S S S S S S S S S S S S S S S S S S S S S S S


 

 
 ||--12p0h7p0-0-12p0-0-10-0-0-8-0-0-5-0-|-12p0h7p0-0-12p0-0-10-0-0-8-0-0-5-0-||
 ||o------------------------------------|-----------------------------------o||
 ||-------------------------------------|------------------------------------||
 ||-------------------------------------|------------------------------------||
 ||o------------------------------------|-----------------------------------o||
 ||-------------------------------------|------------------------------------||

 


 |


 | S E. S S E H S E. S S E H


 

 
 ||-------------------------------------|------------------------------------||
 ||o------------------------------------|-----------------------------------o||
 ||--11---------11----------------------|-11---------11----------------------||
 ||---9----------9----------------------|--9----------9----------------------||
 ||o--7----------7----------------------|--7----------7---------------------o||
 ||---0----------0----------------------|--0----------0----------------------||

 


 


 7/8


 

 
 |---3---| |-3-|

 


 E S S S S E E E E E S S


 

 
 ||--------------------------|
 ||o-------------------------|
 ||--9-x-x-x-x-9-9-9-9---9---|
 ||--x-x-x-x-x-x-x-x-x---x---|
 ||o-7-x-x-x-x-7-7-7-7---7---|
 ||--------------------------|

 


 |


 

 
 | |---3---| |-3-|

 


 | E S S S S E E E E E S S


 

 
 ||--------------------------|
 ||o-------------------------|
 ||--------------------------|
 ||--8-x-x-x-x-8-8-8-8---8---|
 ||o-7-x-x-x-x-7-7-7-7---7---|
 ||--------------------------|

 


 


 1. 2.


 

 
 |---3---| |-3-| |---3---| |-3-|

 


 E S S S S E E E E E S S E S S S S E E E E Q


 

 
 |--------------------------||-----------------------|
 |-------------------------o||-----------------------|
 |-9-x-x-x-x-9-9-9-9---9----||-9-x-x-x-x-9-9-9-9\----|
 |-x-x-x-x-x-x-x-x-x---x----||-x-x-x-x-x-x-x-x-x\----|
 |-7-x-x-x-x-7-7-7-7---7---o||-7-x-x-x-x-7-7-7-7\----|
 |--------------------------||-----------------------|

 


 |


 

 
 | |---3---| |-3-| |---3---| |-3-|

 


 | E S S S S E E E E E S S E S S S S E E E E Q


 

 
 |--------------------------||-----------------------|
 |-------------------------o||-----------------------|
 |--------------------------||-----------------------|
 |-8-x-x-x-x-8-8-8-8---8----||-8-x-x-x-x-8-8-8-8\----|
 |-7-x-x-x-x-7-7-7-7---7---o||-7-x-x-x-x-7-7-7-7\----|
 |--------------------------||-----------------------|
 |---3---| |-3-| |---3---| |-3-|

 


 E S S S S E E E E E S S E S S S S E E E E E E


 

 
 ||--------------------------|-----------------------|
 ||o-------------------------|-----------------------|
 ||--------------------------|-6-x-x-x-x-6-6-6-8-8-8-|
 ||--8-x-x-x-x-8-8-8-8---8---|-5-x-x-x-x-5-5-5-7-7-7-|
 ||o-7-x-x-x-x-7-7-7-7---7---|-4-x-x-x-x-4-4-4-6-6-6-|
 ||--0-x-x-x-x-0-0-0-0---0---|-----------------------|

 


 |


 

 
 | |---3---| |-3-| |---3---| |-3-|

 


 | E S S S S E E E E E S S E S S S S E E E E E E


 

 
 ||--------------------------|-----------------------|
 ||o-------------------------|-----------------------|
 ||--------------------------|-6-x-x-x-x-6-6-6-8-8-8-|
 ||--8-x-x-x-x-8-8-8-8---8---|-x-x-x-x-x-5-5-5-7-7-7-|
 ||o-7-x-x-x-x-7-7-7-7---7---|-4-x-x-x-x-4-4-4-6-6-6-|
 ||--0-x-x-x-x-0-0-0-0---0---|-----------------------|
 |---3---| |-3-| |---3---| |-3-|

 


 E S S S S E E E E E S S E S S S S E E E S S S S S S


 

 
 |-------------------------|--------------------------------||
 |-------------------------|-------------------------------o||
 |-------------------------|-6-x-x-x-x-6-6-6-8-x-8-x-8-x----||
 |-8-x-x-x-x-8-8-8-8---8---|-5-x-x-x-x-5-5-5-7-x-7-x-7-x----||
 |-7-x-x-x-x-7-7-7-7---7---|-4-x-x-x-x-4-4-4-6-x-6-x-6-x---o||
 |-0-x-x-x-x-0-0-0-0---0---|--------------------------------||

 


 |


 

 
 | |---3---| |-3-| |---3---| |-3-|

 


 | E S S S S E E E E E S S E S S S S E E E S S S S S S


 

 
 |-------------------------|--------------------------------||
 |-------------------------|-------------------------------o||
 |-------------------------|-6-x-x-x-x-6-6-6-8-x-8-x-8-x----||
 |-8-x-x-x-x-8-8-8-8---8---|-5-x-x-x-x-5-5-5-7-x-7-x-7-x----||
 |-7-x-x-x-x-7-7-7-7---7---|-4-x-x-x-x-4-4-4-6-x-6-x-6-x---o||
 |-0-x-x-x-x-0-0-0-0---0---|--------------------------------||

 


 


 Q=116


 

 
 |---3---| |-3-|

 


 E S S S S E E E E E S S 4x


 

 
 ||------------------------------||
 ||o----------------------------o||
 ||--9-x-x-x-x-9-9-9-9---9-------||
 ||------------------------------||
 ||o-7-x-x-x-x-7-7-7-7---7------o||
 ||--0-x-x-x-x-0-0-0-0---0-------||

 


 |


 

 
 | |---3---| |-3-|

 


 | E S S S S E E E E E S S 4x


 

 
 ||------------------------------||
 ||o----------------------------o||
 ||------------------------------||
 ||--8-x-x-x-x-8-8-8-8---8-------||
 ||o-7-x-x-x-x-7-7-7-7---7------o||
 ||--0-x-x-x-x-0-0-0-0---0-------||

 


 


 [4/4] Q H.


 

 
 |----------*|
 |----------*|
 |-9--------*|
 |----------*|
 |-7--------*|
 |-0--------*|

 


 |


 | Q H.


 

 
 |----------*|
 |----------*|
 |----------*|
 |-8--------*|
 |-7--------*|
 |-0--------*|

 


 


 


 Duration Legend


 

 
 ---------------
 W - whole; H - half; Q - quarter; E - 8th; S - 16th; T - 32nd; X - 64th; a - acciaccatura

 


 + - note tied to previous; . - note dotted; .. - note double dotted


 Uncapitalized letters represent notes that are staccato (1/2 duration)


 Irregular groupings are notated above the duration line


 Duration letters will always appear directly above the note/fret number it represents the


 duration for. Duration letters with no fret number below them represent rests. Multi-


 bar rests are notated in the form Wxn, where n is the number of bars to rest for. Low


 melody durations appear below the staff


 


 Tablature Legend


 

 
 ----------------

 


 h - hammer-on


 p - pull-off


 b - bend


 pb - pre-bend


 r - bend release (if no number after the r, then release immediately)


 /\ - slide into or out of (from/to "nowhere")


 s - legato slide


 S - shift slide


 - natural harmonic


 (n) - artificial harmonic


 n(n) - tapped harmonic


 ~ - vibrato


 tr - trill


 T - tap


 TP - trem. picking


 PM - palm muting


 \n/ - tremolo bar dip; n = amount to dip


 \n - tremolo bar down


 n/ - tremolo bar up


 /n\ - tremolo bar inverted dip


 = - hold bend; also acts as connecting device for hammers/pulls


 - volume swell (louder/softer)


 x - on rhythm slash represents muted slash


 o - on rhythm slash represents single note slash


 


 Misc Legend


 

 
 -----------


Important: The song above is NOT stored on the Chordie server. The original song is hosted at www.guitaretab.com. Chordie works as a search engine and provides on-the-fly formatting. Chordie does not index songs against artists'/composers' will. To remove this song please click here.

This song is displayed as text-only. Transposing and tuning is only available for chordpro-songs.
Rate #1 of 2 versions

Login - add to songbook

SHARE PAGE  



You need to log in to post comments