Guitar Tabs, Chords and Lyrics
Server problems seems to be fixed. Chordie has been experiencing problems with songs disappearing. These issues now seems to be fixed, but still verifying the fix. If you find anything strange, please email admin@chordie.com.


Seattlantis  The Fall of Troy

Seattlantis
(BOTH TRACKS ARE SIMULTANEOUS, done with one
guitar but track one is clean and track two is distorted)
-the intro/chorus is right, but i'm not sure about verses.
by The Fall of Troy
Track 1- Clean Guitar
PM PM PM
 
 |--3-| |--3--| 3 |--3-| |--3-| |--3--| |--3--| |---3--| 

Q E E E E Q. Q E Q E E E E E E E E E E
 
 E||-----------------------------------|--------------------------------------|
 B||--------------------3--------------|-------------------1--3--1------------|
 G||*----------3---------------3-------|----------3-----------------3p--0--0--|
 D||*-------------1-----------------1--|-------------1------------------------|
 A||---3----3--------3-----------------|--1----1--------3---------------------|
 E||-----------------------------------|--------------------------------------|

PM PM PM
 
 |--3--| |--3--| |--3--| |--3--| |--3--| |--3--| |--3-| |--3-| 

E E E E E E E E E E E E E E E E E E Q E Q E
 
 --------------------------------------|--------------------3------------1---||
 --------------3--x--------------3--x--|--------3-----3-------------3--------||
 --------3-----------------3-----------|-----------3-----3-------3----------*||
 --------------------------------------|-----1------------------------------*||
 -----1-----1-----------1-----1--------|--3----------------------------------||
 --3-----------------3-----------------|-------------------------------------||

^
 
 |--3--| |--3--| |----3----| ----- ----- ----- ----- ----- 

E E E E E E Q Q Q
 
 --------------------3--------------|-------|-------|-------|-------|-------|
 --------3-----3--------------------|-------|-------|-------|-------|-------|
 -----------3-----3-----------------|-------|-------|-------|-------|-------|
 -----1-----------------------------|-------|-------|-------|-------|-------|
 --3--------------------------------|-------|-------|-------|-------|-------|
 -----------------------------------|-------|-------|-------|-------|-------|
 ----- ----- ----- ----- ----- ----- -----
 -------|-------|-------|-------|-------|-------|-------|
 -------|-------|-------|-------|-------|-------|-------|
 -------|-------|-------|-------|-------|-------|-------|
 -------|-------|-------|-------|-------|-------|-------|
 -------|-------|-------|-------|-------|-------|-------|
 -------|-------|-------|-------|-------|-------|-------|

1.) Color ourselves, 2.) Talk to you sleep,
PM
 
 |----------3---------| |--3--| |-----------3----------| |--3-| 

Q E E E E Q E Q E
 
 |----------------------------------------------------------------------|
 |------------------------------------3-------------------------1-------|
 |*--------------------------3--------3-------------------------3-------|
 |*--------------------------1--------1-------------------------1-------|
 |---3--------------------3--3--3--3--3----------------------3--3----3--|
 |----------------------------------------------------------------------|

3.)You beg for!....
PM PM
 
 |---------3---------| |--3--| |--3--| |---3--| 

Q E E E E E E E E E E
 
 -----------------------------------------------------|
 ----------------------------------1--3--1------------|
 -------------------------3-----------------3p--0--0--|
 ----------------------------1------------------------|
 --1-------------------1--------3---------------------|
 -----------------------------------------------------|

1.)and shade you in lies. 2.) on the other end of the line.
PM
 
 |--------------3-------------| |--3--| |------------------3-----------------

[E] [E] [E] [E] [E] [E] [E] [E] 
 
 --------------------------------------------------------------------------------
 -------------------------------------3--x---------------------------------------
 -------------------------------3-----3------------------------------------------
 -------------------------------1-----1------------------------------------------
 -------------------------------1-----1---------------------------------------1--
 --3--3-------------------------3--3--3--3--3---------------------------------3--

3.) your live.
 
 |--------3--------| |--3--| |----3----| 

E E E E E E Q Q Q 4x
 
 ------------------------------------------------||
 --------------------3-----3-----3----3----------||
 -----------------------------3--3----3---------*||
 -----1--------------------------1----1---------*||
 --3--------------------3--------3----3----------||
 ------------------------------------------------||
 |--3--| |--3--| |----3----| |--3--| |--3--| |----3----| 

E E E E E E Q Q Q E E E E E E Q Q Q
 
 ------------------------------------||-----------------------------------|
 --------3-----3-----3---------------||--------3-----3-----3--------------|
 -----------------3--3--------------*||-----------------3--3--------------|
 -----1--------------1--------------*||-----1--------------1--------------|
 --3--------3--------3---------------||--3--------3--------3--------------|
 ------------------------------------||-----------------------------------|
 ----- ----- ----- ----- ----- ----- ----- ----- ----- -----
 -------|-------|-------|-------|-------|-------|-------|-------|-------|-------|
 -------|-------|-------|-------|-------|-------|-------|-------|-------|-------|
 -------|-------|-------|-------|-------|-------|-------|-------|-------|-------|
 -------|-------|-------|-------|-------|-------|-------|-------|-------|-------|
 -------|-------|-------|-------|-------|-------|-------|-------|-------|-------|
 -------|-------|-------|-------|-------|-------|-------|-------|-------|-------|
 ----- -----
 -------|-------|
 -------|-------|
 -------|-------|
 -------|-------|
 -------|-------|
 -------|-------|

1.) Color ourselves, 2.) Talk to you sleep,
PM
 
 |----------3---------| |--3--| |-----------3----------| |--3-| 

Q E E E E Q E Q E
 
 ---------------------------------------------------------------------|
 -----------------------------------3-------------------------1-------|
 --------------------------3--------3-------------------------3-------|
 --------------------------1--------1-------------------------1-------|
 --3--------------------3--3--3--3--3----------------------3--3----3--|
 ---------------------------------------------------------------------|

3.)You beg for!....
PM PM
 
 |---------3---------| |--3--| |--3--| |---3--| 

Q E E E E E E E E E E
 
 -----------------------------------------------------|
 ----------------------------------1--3--1------------|
 -------------------------3-----------------3p--0--0--|
 ----------------------------1------------------------|
 --1-------------------1--------3---------------------|
 -----------------------------------------------------|

3.) your live.
 
 |--------3--------| |--3--| |----3----| 

E E E E E E Q Q Q
 
 ------------------------------------------------||
 --------------------3-----3-----3----3----------||
 -----------------------------3--3----3---------*||
 -----1--------------------------1----1---------*||
 --3--------------------3--------3----3----------||
 ------------------------------------------------||
 |--3--| |--3--| |----3----| |--3--| |--3--| |----3----| 

E E E E E E Q Q Q E E E E E E Q Q Q
 
 ------------------------------------||-----------------------------------|
 --------3-----3-----3---------------||--------3-----3-----3--------------|
 -----------------3--3--------------*||-----------------3--3--------------|
 -----1--------------1--------------*||-----1--------------1--------------|
 --3--------3--------3---------------||--3--------3--------3--------------|
 ------------------------------------||-----------------------------------|
 ----- --- --- --- --- --- --- --- ---
 -------|-----|-----|-----|-----|-----|-----|-----|-----|
 -------|-----|-----|-----|-----|-----|-----|-----|-----|
 -------|-----|-----|-----|-----|-----|-----|-----|-----|
 -------|-----|-----|-----|-----|-----|-----|-----|-----|
 -------|-----|-----|-----|-----|-----|-----|-----|-----|
 -------|-----|-----|-----|-----|-----|-----|-----|-----|

1.) Color ourselves, 2.) Talk to you sleep,
PM
 
 |----------3---------| |--3--| |-----------3----------| |--3-| 

Q E E E E Q E Q E
 
 ---------------------------------------------------------------------|
 -----------------------------------3-------------------------1-------|
 --------------------------3--------3-------------------------3-------|
 --------------------------1--------1-------------------------1-------|
 --3--------------------3--3--3--3--3----------------------3--3----3--|
 ---------------------------------------------------------------------|

3.)You beg for!....
PM PM
 
 |---------3---------| |--3--| |--3--| |---3--| --- --- --- --- 

Q E E E E E E E E E E
 
 -----------------------------------------------------|-----|-----|-----|-----|
 ----------------------------------1--3--1------------|-----|-----|-----|-----|
 -------------------------3-----------------3p--0--0--|-----|-----|-----|-----|
 ----------------------------1------------------------|-----|-----|-----|-----|
 --1-------------------1--------3---------------------|-----|-----|-----|-----|
 -----------------------------------------------------|-----|-----|-----|-----|

1.) Color ourselves, 2.) Talk to you sleep,
PM
 
 |----------3---------| |--3--| |-----------3----------| |--3-| 

Q E E E E Q E Q E
 
 ---------------------------------------------------------------------|
 -----------------------------------3-------------------------1-------|
 --------------------------3--------3-------------------------3-------|
 --------------------------1--------1-------------------------1-------|
 --3--------------------3--3--3--3--3----------------------3--3----3--|
 ---------------------------------------------------------------------|

3.)You beg for!....
PM PM
 
 |---------3---------| |--3--| |--3--| |---3--| --- --- --- --- 

Q E E E E E E E E E E
 
 -----------------------------------------------------|-----|-----|-----|-----|
 ----------------------------------1--3--1------------|-----|-----|-----|-----|
 -------------------------3-----------------3p--0--0--|-----|-----|-----|-----|
 ----------------------------1------------------------|-----|-----|-----|-----|
 --1-------------------1--------3---------------------|-----|-----|-----|-----|
 -----------------------------------------------------|-----|-----|-----|-----|

Duration Legend
 
 ---------------

W - whole
H - half
Q - quarter
E - 8th
S - 16th
T - 32nd
X - 64th
. - note dotted
|-n-| - n-tuplets
Tablature Legend
 
 ----------------

L - tied note
x - dead note
g - grace note
(n) - ghost note
> - accentuded note
NH - natural harmonic
AH - artificial harmonic
TH - tapped harmonic
SH - semi harmonic
PH - pitch harmonic
h - hammer on
p - pull off
b - bend
br - bendRelease
pb - preBend
pbr - preBendRelease
brb - bendReleaseBend
\n/ - tremolo bar dip
\n - tremolo bar dive
-/n - tremolo bar Release up
/n\ - tremolo bar inverted dip
/n - tremolo bar return
-\n - tremolo bar Release down
S - shift slide
s - legato slide
/ - slide into from below or out of upwards
\ - slide into from above or out of downwards
~ - vibrato
W - wide vibrato
tr - trill
TP - tremolo picking
T - tapping
S - slap
P - pop
< - fade in
^ - brush up
v - brush down
TRACK 2: DISTOTED GUITAR
 
 E||--------|-------|-------|--------||-------|
 B||--------|-------|-------|--------||-------|
 G||*-------|-------|-------|-------*||-------|
 D||*-------|-------|-------|-------*||-------|
 A||--------|-------|-------|--------||-------|
 E||--------|-------|-------|--------||-------|

Oh dear! I been a bad, bad boy!
 
 |----3---| |---3--| |--3-| |------------3------------| 

Q E E E E Q E E E E E E
 
 --------------------------------------------------------------------|
 --------------------------------------------------------------------|
 ---------------7p--0-------------7p---------------------0-----------|
 --8----------------------8------------------------------------7--7--|
 --6--------x----------9--6----x----------------------------9--5--5--|
 --------------------------------------------------------------------|

BAD BAD BAD BAD BAD BAD BOY! BAD BAD BAD BOY!
 
 |----------------------3----------------------| |---3--| |--3-| |---3--| 

Q E E E E Q E E E E
 
 --------------------------------------------------------------------------------
 --------------------------------------------------------------------------------
 ----------------------------------------------------7p--0-------------7---------
 --8-----------------------------------------------------------8----------8p--0--
 --6---------------------------------------------x----------9--6----x------------
 --------------------------------------------------------------------------------
 |--3-| |--3--| |--3-| |--3--| |--3-| |--3--| |--3-| |--3--| 

Q E E E E Q E E E E Q E E E E Q E E E E
 
 ------------------------------------|------------------------------------|
 ------------------------------------|------------------------------------|
 ----------4--0--0----------4--0--0--|----------4--0--0----------4--0--0--|
 --6----------------6----------------|--6----------------6----------------|
 --4----x-----------4----x-----------|--4----x-----------4----x-----------|
 ------------------------------------|------------------------------------|
 |--3-| |--3--| |--3-| |--3--| |--3-| |--3--| |--3-| |--3--| 

Q E E E E Q E E E E Q E E E E Q E E E E
 
 ------------------------------------|------------------------------------|
 ------------------------------------|------------------------------------|
 ----------4--0--0----------4--0--0--|----------4--0--0----------4--0--0--|
 --6----------------6----------------|--6----------------6----------------|
 --4----x-----------4----x-----------|--4----x-----------4----x-----------|
 ------------------------------------|------------------------------------|

Tangible, the way that I want you to feel...TO ME!
 
 |-------------------------3------------------------| |---3--| |--3-| |---3

Q E E E E Q E E E
 
 --------------------------------------------------------------------------------
 --------------------------------------------------------------------------------
 ---------------------------------------------------------7p--0-------------7p--0
 --8----------------------------------------------------------------8------------
 --6--------------------------------------------------x----------9--6----x-------
 --------------------------------------------------------------------------------
 |--3-| |---3--| |--3-| |---3--| 

Q E E E E Q E E E E E E
 
 ---------------------------------------------|
 ---------------------------------------------|
 -----------7p--0-------------7---------------|
 --8------------------8----------8p--0--7--7--|
 --6----x----------9--6----x------------5--5--|
 ---------------------------------------------|
 |--3-| |--3--| |--3-| |--3--| |--3-| |--3--| |--3-| |--3--| 

Q E E E E Q E E E E Q E E E E Q E E E E
 
 ------------------------------------|------------------------------------|
 ------------------------------------|------------------------------------|
 ----------4--0--0----------4--0--0--|----------4--0--0----------4--0--0--|
 --6----------------6----------------|--6----------------6----------------|
 --4----x-----------4----x-----------|--4----x-----------4----x-----------|
 ------------------------------------|------------------------------------|
 |--3-| |--3--| |--3-| |--3--| |--3-| |--3--| |--3-| |--3--| 

Q E E E E Q E E E E Q E E E E Q E E E E
 
 ------------------------------------|------------------------------------|
 ------------------------------------|------------------------------------|
 ----------4--0--0----------4--0--0--|----------4--0--0----------4--0--0--|
 --6----------------6----------------|--6----------------6----------------|
 --4----x-----------4----x-----------|--4----x-----------4----x-----------|
 ------------------------------------|------------------------------------|

4x
 
 |--------|-------|-------|--------||--------||-------|
 |--------|-------|-------|--------||--------||-------|
 |*-------|-------|-------|-------*||-------*||-------|
 |*-------|-------|-------|-------*||-------*||-------|
 |--------|-------|-------|--------||--------||-------|
 |--------|-------|-------|--------||--------||-------|

Sleep the day... Sleep the day by...
 
 |--------3-------| |---3--| |--3-| |-----------3----------| 

Q E E E E Q E E E E E E
 
 -------------------------------------------------------------------------|
 -------------------------------------------------------------------------|
 -----------------------7p--0-------------7p------------------0-----------|
 --8------------------------------8---------------------------------7--7--|
 --6----------------x----------9--6----x-------------------------9--5--5--|
 -------------------------------------------------------------------------|
 |--3-| |---3--| |--3-| |---3--| 

Q E E E E Q E E E E E E
 
 ---------------------------------------------|
 ---------------------------------------------|
 -----------7p--0-------------7---------------|
 --8------------------8----------8p--0--7--7--|
 --6----x----------9--6----x------------5--5--|
 ---------------------------------------------|
 |--3-| |--3--| |--3-| |--3--| |--3-| |--3--| |--3-| |--3--| 

Q E E E E Q E E E E Q E E E E Q E E E E
 
 ------------------------------------|------------------------------------|
 ------------------------------------|------------------------------------|
 ----------4--0--0----------4--0--0--|----------4--0--0----------4--0--0--|
 --6----------------6----------------|--6----------------6----------------|
 --4----x-----------4----x-----------|--4----x-----------4----x-----------|
 ------------------------------------|------------------------------------|
 |--3-| |--3--| |--3-| |--3--| |--3-| |--3--| |--3-| |--3--| 

Q E E E E Q E E E E Q E E E E Q E E E E
 
 ------------------------------------|------------------------------------|
 ------------------------------------|------------------------------------|
 ----------4--0--0----------4--0--0--|----------4--0--0----------4--0--0--|
 --6----------------6----------------|--6----------------6----------------|
 --4----x-----------4----x-----------|--4----x-----------4----x-----------|
 ------------------------------------|------------------------------------|

Arson's just a felony,
 
 |-----------3----------| |---3--| |--3-| |---3--| 

Q E E E E Q E E E E E E
 
 ---------------------------------------------------------------|
 ---------------------------------------------------------------|
 -----------------------------7p--0-------------7p--0-----------|
 --8------------------------------------8-----------------7--7--|
 --6----------------------x----------9--6----x---------9--5--5--|
 ---------------------------------------------------------------|
 |--3-| |---3--| |--3-| |---3--| 

Q E E E E Q E E E E E E
 
 ---------------------------------------------|
 ---------------------------------------------|
 -----------7p--0-------------7---------------|
 --8------------------8----------8p--0--7--7--|
 --6----x----------9--6----x------------5--5--|
 ---------------------------------------------|

...and trusting you is burning me....ALIVE!!!
 
 |----------------------3----------------------| |--3--| |--3-| |--3--| 

Q E E E E Q E E E E
 
 -----------------------------------------------------------------------------|
 -----------------------------------------------------------------------------|
 ---------------------------------------------------4--0--0----------4--0--0--|
 --6---------------------------------------------------------6----------------|
 --4---------------------------------------------x-----------4----x-----------|
 -----------------------------------------------------------------------------|
 |--3-| |--3--| |--3-| |--3--| |--3-| |--3--| |--3-| |--3--| 

Q E E E E Q E E E E Q E E E E Q E E E E
 
 ------------------------------------|------------------------------------|
 ------------------------------------|------------------------------------|
 ----------4--0--0----------4--0--0--|----------4--0--0----------4--0--0--|
 --6----------------6----------------|--6----------------6----------------|
 --4----x-----------4----x-----------|--4----x-----------4----x-----------|
 ------------------------------------|------------------------------------|
 |--3-| |--3--| |--3-| |--3--| --- --- --- --- --- 

Q E E E E Q E E E E
 
 ------------------------------------|-----|-----|------||------||-----|
 ------------------------------------|-----|-----|------||------||-----|
 ----------4--0--0----------4--0--0--|-----|-----|-----*||-----*||-----|
 --6----------------6----------------|-----|-----|-----*||-----*||-----|
 --4----x-----------4----x-----------|-----|-----|------||------||-----|
 ------------------------------------|-----|-----|------||------||-----|
 |--3-| |---3--| |---3--| |---3--| 

Q E E E E E E E E E E
 
 ---------------------8p--0---------------|
 --------------5S--8---------x--8p--0--x--|
 -----------------------------------------|
 --11----x--x-----------------------------|
 ---9----x--x-----------------------------|
 -----------------------------------------|
 |--3-| |---3--| |---3--| |---3--| 

Q E E E E E E E E E E
 
 ---------------------8p--0---------------|
 --------------5S--8---------x--8p--0--x--|
 -----------------------------------------|
 --11----x--x-----------------------------|
 ---9----x--x-----------------------------|
 -----------------------------------------|
 |--3-| |---3--| |---3--| |---3--| |--3-| 

Q E E E E E E E E E E Q E H.
 
 ---------------------8p--0---------------|------------------------|
 --------------5S--8---------x--8p--0--x--|------------------------|
 -----------------------------------------|------------------------|
 --11----x--x-----------------------------|--11----x---------------|
 ---9----x--x-----------------------------|---9----x---------------|
 -----------------------------------------|------------------------|

TP TP TP
 
 |--3-| |---3--| |---3--| |---3--| 

H Q Q Q E E E E E E E E E E
 
 ----------------------|---------------------8p--0---------------|
 ----------------------|--------------5S--8---------x--8p--0--x--|
 --8--------10----9----|-----------------------------------------|
 --7---------9----8----|--11----x--x-----------------------------|
 --6---------8----7----|---9----x--x-----------------------------|
 ------------7----6----|-----------------------------------------|
 |--3-| |---3--| |---3--| |---3--| 

Q E E E E E E E E E E
 
 ---------------------8p--0---------------|
 --------------5S--8---------x--8p--0--x--|
 -----------------------------------------|
 --11----x--x-----------------------------|
 ---9----x--x-----------------------------|
 -----------------------------------------|
 |--3-| |---3--| |---3--| |---3--| 

Q E E E E E E E E E E
 
 ---------------------8p--0---------------|
 --------------5S--8---------x--8p--0--x--|
 -----------------------------------------|
 --11----x--x-----------------------------|
 ---9----x--x-----------------------------|
 -----------------------------------------|
 |--3-| |---3--| |---3--| |---3--| --- --- 

Q E E E E E E E E E E
 
 ---------------------8p--0---------------|-----|-----|
 --------------5S--8---------x--8p--0--x--|-----|-----|
 -----------------------------------------|-----|-----|
 --11----x--x-----------------------------|-----|-----|
 ---9----x--x-----------------------------|-----|-----|
 -----------------------------------------|-----|-----|
 |--3-| |---3--| |---3--| |---3--| 

Q E E E E E E E E E E
 
 ---------------------8p--0---------------|
 --------------5S--8---------x--8p--0--x--|
 -----------------------------------------|
 --11----x--x-----------------------------|
 ---9----x--x-----------------------------|
 -----------------------------------------|
 |--3-| |---3--| |---3--| |---3--| 

Q E E E E E E E E E E
 
 ---------------------8p--0---------------|
 --------------5S--8---------x--8p--0--x--|
 -----------------------------------------|
 --11----x--x-----------------------------|
 ---9----x--x-----------------------------|
 -----------------------------------------|
 |--3-| |---3--| |---3--| |---3--| |--3-| 

Q E E E E E E E E E E Q E H.
 
 ---------------------8p--0---------------|------------------------|
 --------------5S--8---------x--8p--0--x--|------------------------|
 -----------------------------------------|------------------------|
 --11----x--x-----------------------------|--11----x---------------|
 ---9----x--x-----------------------------|---9----x---------------|
 -----------------------------------------|------------------------|
 ---------------|---------------|
 ---------------|---------------|
 ---------------|---------------|
 ---------------|---------------|
 ---------------|---------------|
 ---------------|---------------|

E. S E E E E E Q E Q. E E E E E
 
 --------------------------------------------------------|
 --------------------------------------------------------|
 --------------------------------------------------------|
 --12-----11-----10--9--8-------7---------6--5--4--3--2--|
 --10------9------8--7--6-------5---------4--3--2--1--0--|
 --------------------------------------------------------|

[E] [E] [E] [E] [E] [E] [E] [E] [E] [E] [E] [E] [E] [E] [E] [E]  
 
 ----------------------------|----------------------------|
 ----------------------------|----------------------------|
 ----------------------------|----------------------------|
 ----------------------------|----------------------------|
 --10--9--8--7--10--9--8--7--|--10--9--8--7--10--9--8--7--|
 ---8--7--6--5---8--7--6--5--|---8--7--6--5---8--7--6--5--|

PH
E E E E E E E E W
 
 ----------------------------|----------------------|
 ----------------------------|----------------------|
 ----------------------------|--7b----------------|
 ----------------------------|----------------------|
 --10--9--8--7--10--9--8--7--|----------------------|
 ---8--7--6--5---8--7--6--5--|----------------------|

[E] [E] [E] [E] [E] [E] [E] [E] [E] [E] [E] [E] [E] [E] [E] [E]  
 
 ----------------------------|----------------------------|
 ----------------------------|----------------------------|
 ----------------------------|----------------------------|
 ----------------------------|----------------------------|
 --10--9--8--7--10--9--8--7--|--10--9--8--7--10--9--8--7--|
 ---8--7--6--5---8--7--6--5--|---8--7--6--5---8--7--6--5--|

W
[E] [E] [E] [E] [E] [E] [E] [E] [E] [E] [E] [E] [E]  
 
 ----------------------------|---------------------||
 ----------------------------|---------------------||
 ----------------------------|---------------5b--||
 ----------------------------|---------------------||
 --10--9--8--7--10--9--8--7--|--10--9--8--7--------||
 ---8--7--6--5---8--7--6--5--|---8--7--6--5--------||


Important: The song above is NOT stored on the Chordie server. The original song is hosted at www.guitaretab.com. Chordie works as a search engine and provides on-the-fly formatting. Chordie does not index songs against artists'/composers' will. To remove this song please click here.

Text color:
Chord color:
Chord grids: 
Font size:    
Page size: 

E
Rate #1 of 2 versions

Jango Player

Login - add to songbook

SHARE PAGE  




You need to log in to post comments