Guitar Tabs, Chords and Lyrics
Server problems seems to be fixed. Chordie has been experiencing problems with songs disappearing. These issues now seems to be fixed, but still verifying the fix. If you find anything strange, please email admin@chordie.com.


Cut Down All the Trees and Name the Streets After Them   The Fall of Troy

 
 e----------------------------------------------------------|
 b-------------------0-0-0-0-0-0-0-0--0-0-3-0-0-0-3-0-------|
 g--4-4-4-4-4-4-4-4--2-2-4-2-2-2-4-2--2-2-2-2-2-2-2-2-------|
 d--x-x-5-x-x-x-5-x--3-3-3-3-3-3-3-3--0-0-0-0-0-0-0-0-------|
 a--2-2-2-2-2-2-2-2--0-0-0-0-0-0-0-0--3-3-3-3-3-3-3-3-------|
 E--0-0-0-0-0-0-0-0-------------------1-1-1-1-1-1-1-1--333--|

 


 


 Break yourdelf...


 


 

 
 e--7p0-7p0-10p0--10p0---15-14-|
 b-----8---8----12----12-------|
 g-----------------------------|
 d-----------------------------|
 a-----------------------------|
 E-----------------------------|
 e-----------------------------------------------------------|
 b-------------------0-0-0-0-0-0-0-0--0-0-3-0-0-0-3-0--------|
 g--4-4-4-4-4-4-4-4--2-2-4-2-2-2-4-2--2-2-2-2-2-2-2-2--------|
 d--x-x-5-x-x-x-5-x--3-3-3-3-3-3-3-3--0-0-0-0-0-0-0-0--------|
 a--2-2-2-2-2-2-2-2--0-0-0-0-0-0-0-0--3-3-3-3-3-3-3-3--------|
 E--0-0-0-0-0-0-0-0-------------------1-1-1-1-1-1-1-1--0-0-3-|
 e--7p0-7p0-10p0--10p0---15-14~-|
 b-----8---8----12----12--------|
 g------------------------------|
 d------------------------------|
 a------------------------------|
 E------------------------------|

 


 


 [cborus] 


 


 

 
 e---------------------------------------------------------------|
 b--10-10-10p8--8--8--10-10-10p8--8--8---6-6-6h8-8--6-6-6h8-8----|
 g---9--9--9-9--9--9---9--9--9-9--9--9---5-5-5-5-5--5-5-5-5-5----|
 d--10-10-10-10-10-10-10-10-10-10-10-10--7-7-7-7-7--7-7-7-7-7----|
 a---x--x--x--x--x--x--x--x--x--x--x--x--x-x-x-x-x--x-x-x-x-x----|
 E-8-----------------8------------------5----------5-------------|
 e--------------------------------------------------------------5-|
 b--10-10-10p8--8--8--10-10-10p8--8--8---6-6-6h8-8--6-6-6h8-8---7-|
 g---9--9--9-9--9--9---9--9--9-9--9--9---5-5-5-5-5--5-5-5-5-5-----|
 d--10-10-10-10-10-10-10-10-10-10-10-10--7-7-7-7-7--7-7-7-7-7-----|
 a---x--x--x--x--x--x--x--x--x--x--x--x--x-x-x-x-x--x-x-x-x-x-----|
 E-8-----------------8------------------5----------5--------------|

 


 P.H.


 


 [verse] 


 


 

 
 e-----------------------------------------------------------|
 b-------------------0-0-0-0-0-0-0-0--0-0-3-0-0-0-3-0--------|
 g--4-4-4-4-4-4-4-4--2-2-4-2-2-2-4-2--2-2-2-2-2-2-2-2--------|
 d--x-x-5-x-x-x-5-x--3-3-3-3-3-3-3-3--0-0-0-0-0-0-0-0--------|
 a--2-2-2-2-2-2-2-2--0-0-0-0-0-0-0-0--3-3-3-3-3-3-3-3--------|
 E--0-0-0-0-0-0-0-0-------------------1-1-1-1-1-1-1-1--0-0-3-|

 


 Did his selfless hands..


 


 

 
 e--7p0-7p0-10p0--10p0---15-14---------------------|
 b-----8---8----12----12--------15p13p12-----------|
 g--------------------------------------14p12p11---|
 d----------------------------------------------14-|
 a-------------------------------------------------|
 E-------------------------------------------------|
 e----------------------------------------------------------|
 b-------------------0-0-0-0-0-0-0-0--0-0-3-0-0-0-3-0-------|
 g--4-4-4-4-4-4-4-4--2-2-4-2-2-2-4-2--2-2-2-2-2-2-2-2-------|
 d--x-x-5-x-x-x-5-x--3-3-3-3-3-3-3-3--0-0-0-0-0-0-0-0-------|
 a--2-2-2-2-2-2-2-2--0-0-0-0-0-0-0-0--3-3-3-3-3-3-3-3-------|
 E--0-0-0-0-0-0-0-0-------------------1-1-1-1-1-1-1-1--333--|
 e--7p0-7p0-10p0--10p0---15-14-|
 b-----8---8----12----12-------|
 g-----------------------------|
 d-----------------------------|
 a-----------------------------|
 E-----------------------------|

 


 


 [cborus] 


 


 

 
 e---------------------------------------------------------------|
 b--10-10-10p8--8--8--10-10-10p8--8--8---6-6-6h8-8--6-6-6h8-8----|
 g---9--9--9-9--9--9---9--9--9-9--9--9---5-5-5-5-5--5-5-5-5-5----|
 d--10-10-10-10-10-10-10-10-10-10-10-10--7-7-7-7-7--7-7-7-7-7----|
 a---x--x--x--x--x--x--x--x--x--x--x--x--x-x-x-x-x--x-x-x-x-x----|
 E-8-----------------8------------------5----------5-------------|
 e----------------------------------------------------------------|
 b--10-10-10p8--8--8--10-10-10p8--8--8---6-6-6h8-8--6-6-6h8-8---8-|
 g---9--9--9-9--9--9---9--9--9-9--9--9---5-5-5-5-5--5-5-5-5-5---5-|
 d--10-10-10-10-10-10-10-10-10-10-10-10--7-7-7-7-7--7-7-7-7-7---7-|
 a---x--x--x--x--x--x--x--x--x--x--x--x--x-x-x-x-x--x-x-x-x-x---x-|
 E-8-----------------8------------------5----------5------------5-|

 


 


 [bridge] 


 


 

 
 e-------------------------------------------|
 b---------------x-x-x--x-x-x-5h6p5p0-8p6p5--|
 g-x-x-x--x-x-x--5-5-5--5-5-5--------------7-|
 d-7-7-7--7-7-7--5-5-5--5-5-5----------------|
 a-7-7-7--7-7-7--3-3-3--3-3-3----------------|
 E-5-5-5--5-5-5--x-x-x--x-x-x----------------|
 e------------------------1p0---3p0-5p0--|
 b--------3-3-3--1-1-1-1p0---1p0-------3-|
 g-x-x-x--4-4-4--2-2-2-------------------|
 d-7-7-7--5-5-5--3-3-3-------------------|
 a-7-7-7--5-5-5--3-3-3-------------------|
 E-5-5-5--0-0-0--0-0-0-------------------|
 e-------------------------------------------|
 b---------------x-x-x--x-x-x-5h6p5p0-8p6p5--|
 g-x-x-x--x-x-x--5-5-5--5-5-5--------------7-|
 d-7-7-7--7-7-7--5-5-5--5-5-5----------------|
 a-7-7-7--7-7-7--3-3-3--3-3-3----------------|
 E-5-5-5--5-5-5--x-x-x--x-x-x----------------|
 e-----------------------------|
 b--------3-3-3----------------|
 g-x-x-x--4-4-4----------------|
 d-7-7-7--5-5-5--7-7-7-7-7-7-7-|
 a-7-7-7--5-5-5--8-8-8-8-8-8-8-|
 E-5-5-5--0-0-0--0-0-0-0-0-0-0-|

 


 


 [breakdown/outro] 


 


 

 
 e---------------------------------------------------|
 b-------8-8-8-------6-6-6-------5-5-5---------------|
 g-5-5-5-7-7-7-5-5-5-7-7-7-5-5-5-7-7-7--5-5-5--5-5-5-|
 d-5-5-5-x-x-x-5-5-5-x-x-x-5-5-5-x-x-x--5-5-5--5-5-5-|
 a-3-3-3-5-5-5-3-3-3-5-5-5-3-3-3-5-5-5--3-3-3--3-3-3-|
 E-0-0-0-------0-0-0-------0-0-0--------0-0-0--0-0-0-|
 e-----------------------------------------------------------8-|
 b-------8-8-8-------6-6-6-------5-5-5----------------------10-|
 g-5-5-5-7-7-7-5-5-5-7-7-7-5-5-5-7-7-7--5-5-5--5-5-5--5-5-5----|
 d-5-5-5-x-x-x-5-5-5-x-x-x-5-5-5-x-x-x--5-5-5--5-5-5--5-5-5----|
 a-3-3-3-5-5-5-3-3-3-5-5-5-3-3-3-5-5-5--3-3-3--3-3-3--3-3-3----|
 E-0-0-0-------0-0-0-------0-0-0--------0-0-0--0-0-0--0-0-0----|

 


 P.H


 


 

 
 e---------------------------------------------------|
 b---------------------------------------------------|
 g---------------------4p2p0--4p2p0--4p2p0--4p2p0----| x2
 d-0000-0000-0000-0000------55-----55-----55-----55--|
 a-0000-0000-0000-0000-------------------------------|
 E-0000-0000-0000-0000-------------------------------|

 


 .... .... .... .... P.M


 


 

 
 e------------------------------------------------------------------------|
 b------------------------------------------------------------------------|
 g---------------------4p2p0--4p2p0--6p4p0--6p4p0--8p6p0--9p7p0----11p9p0-|
 d-0000-0000-0000-0000------55-----55-----77-----77-----99-----1010-------|
 a-0000-0000-0000-0000----------------------------------------------------|
 E-0000-0000-0000-0000----------------------------------------------------|

 


 .... .... .... .... P.M


 

 
 e----------------8-|
 b---------------10-|
 g-----13p13p0------|
 d-1212-------14----|
 a------------------|
 E------------------|

 


 P.H


 


 

 
 e-----------|
 b-----------|
 g-----------|


Important: The song above is NOT stored on the Chordie server. The original song is hosted at www.guitaretab.com. Chordie works as a search engine and provides on-the-fly formatting. Chordie does not index songs against artists'/composers' will. To remove this song please click here.

This song is displayed as text-only. Transposing and tuning is only available for chordpro-songs.
Rate #1 of 3 versions

Login - add to songbook

SHARE PAGE  



You need to log in to post comments