Guitar Tabs, Chords and Lyrics
Server problems seems to be fixed. Chordie has been experiencing problems with songs disappearing. These issues now seems to be fixed, but still verifying the fix. If you find anything strange, please email admin@chordie.com.


A Man a Plan a Canal Panama  The Fall of Troy

A MAN. A PLAN. A CANAL. PANAMA.
As recorded by The Fall of Troy
(From the 2007 Album MANIPULATOR)
Transcribed by ched60
Words and Music by Thomas Erak
Gtr I (E A D G B E) - 'Gtr. 1'
Gtr II (E A D G B E) - 'Gtr. 2'
Gtr III (E A D G B E) - 'Fret Noise'
Intro
Fast Q=169
[Em7]  
[4/4] Gtr I
S S S S E E S S S S E S S
 
 |----------------------------|
 |-------------10s8-7p0-5-7-7-|
 |-7-7-7-7-7----------------x-|
 |-x-x-x-x-x----------------5-|
 |-7-7-7-7-7------------------|
 |----------------------------|

|
| Gtr II
| S S S S E E S S S S E S S
 
 |----------------------------|
 |-------------10s8-7p0-5-7-7-|
 |-7-7-7-7-7----------------x-|
 |-x-x-x-x-x----------------5-|
 |-7-7-7-7-7------------------|
 |----------------------------|

[G/C]  
 
 |--3--| |--3--|

+S S E E E E E E E E E S S E E S S Q Q
 
 |-------------------------12-14-15-|---------------------------|
 |-(7)---7-(0)----12-14-15----------|-12-12-12---12-12-15--12---|
 |-(x)---x-(0)-12-------------------|-12-12-12---12-12-12--12---|
 |-(5)---5--------------------------|--x--x--x----x--x--x---x---|
 |----------------------------------|-15-15-15---15-15-15--15---|
 |----------------------------------|---------------------------|

|
 
 | |--3--| |--3--|

| +S S E E E E E E E E E S S E E S S Q Q
 
 |-------------------------12-14-15-|---------------------------|
 |-(7)---7-(0)----12-14-15----------|-12-12-12---12-12-15--12---|
 |-(x)---x-(0)-12-------------------|-12-12-12---12-12-12--12---|
 |-(5)---5--------------------------|--x--x--x----x--x--x---x---|
 |----------------------------------|-15-15-15---15-15-15--15---|
 |----------------------------------|---------------------------|

D D7 D G/C C
Gtr I
 
 |--3--| |--3--|

S S E E S S Q Q S S E E S S Q E E Q Q Q Q Q Q
 
 |--------------------------|-----------------------------|---------------------|
 |-10-10-10---10-10-13--10--|-12-12-12---12-12-15--12-(0)-|--7--7--7--7--7-(0)--|
 |-11-11-11---11-11-11--11--|-12-12-12---12-12-12--12-(0)-|--8--8--8--8--8-(0)--|
 |-12-12-12---12-12-12--12--|--x--x--x----x--x--x---x-----|-10-10-10-10-10------|
 |--------------------------|-15-15-15---15-15-15--15-----|---------------------|
 |--------------------------|-----------------------------|---------------------|

|
| Gtr II
 
 | |--3--| |--3--|

| S S E E S S Q Q S S E E S S Q E E Q Q Q Q Q Q
 
 |--------------------------|-----------------------------|---------------------|
 |-10-10-10---10-10-13--10--|-12-12-12---12-12-15--12-(0)-|--4--4--4--4--4------|
 |-11-11-11---11-11-11--11--|-12-12-12---12-12-12--12-(0)-|--5--5--5--5--5-(0)--|
 |-12-12-12---12-12-12--12--|--x--x--x----x--x--x---x-----|--x--x--x--x--x-(0)--|
 |--------------------------|-15-15-15---15-15-15--15-----|--3--3--3--3--3------|
 |--------------------------|-----------------------------|---------------------|

[Gadd9] W +W +W
 
 |-^5--------:-(5)------------------:--(5)--------------|
 |-^0--------:-(0)------------------:--(0)--------------|
 |-^4--------:-(4)------------------:--(4)--------------|
 |-^5--------:-(5)------------------:--(5)--------------|
 |-^x--------:-(x)------------------:--(x)--------------|
 |-^3--------:-(3)------------------:--(3)--------------|

|
| \0.5_______/ |
| W Q. Q. Q +H +H
 
 |--5--------:---------------:-()----()----|
 |--0--------:------------:-()----()----|
 |--x--------:------------:-()----()----|
 |--5--------:-------------------:-------------------|
 |--5--------:----------------------:-------------------|
 |--3--------:----------------------:-------------------|

[Em7]S S S S E E S S S S E S S
 
 |----------------------------|
 |-------------10s8-7p0-5-7-7-|
 |-7-7-7-7-7----------------x-|
 |-x-x-x-x-x----------------5-|
 |-7-7-7-7-7------------------|
 |----------------------------|

|
| S S S S E E S S S S E S S
 
 |----------------------------|
 |-------------10s8-7p0-5-7-7-|
 |-7-7-7-7-7----------------x-|
 |-x-x-x-x-x----------------5-|
 |-7-7-7-7-7------------------|
 |----------------------------|

[G/C]  
 
 |--3--| |--3--|

+S S E E E E E E E E E S S E E S S Q Q
 
 |-------------------------12-14-15-|--------------------------|
 |-(7)---7-(0)----12-14-15----------|-12-12-12---12-12-15--12--|
 |-(x)---x-(0)-12-------------------|-12-12-12---12-12-12--12--|
 |-(5)---5--------------------------|--x--x--x----x--x--x---x--|
 |----------------------------------|-15-15-15---15-15-15--15--|
 |----------------------------------|--------------------------|

|
 
 | |--3--| |--3--|

| +S S E E E E E E E E E S S E E S S Q Q
 
 |-------------------------12-14-15-|--------------------------|
 |-(7)---7-(0)----12-14-15----------|-12-12-12---12-12-15--12--|
 |-(x)---x-(0)-12-------------------|-12-12-12---12-12-12--12--|
 |-(5)---5--------------------------|--x--x--x----x--x--x---x--|
 |----------------------------------|-15-15-15---15-15-15--15--|
 |----------------------------------|--------------------------|

[D] S S E E S S S S S S S S E
 
 |------------------------15p0-17s19-0-|
 |-10-10-10---10-10-15s17--------------|
 |-11-11-11---11-11--------------------|
 |-12-12-12---12-12--------------------|
 |-------------------------------------|
 |-------------------------------------|

|
| S S E E S S S S S S S S E
 
 |------------------------15p0-17s19-0-|
 |-10-10-10---10-10-15s17--------------|
 |-11-11-11---11-11--------------------|
 |-12-12-12---12-12--------------------|
 |-------------------------------------|
 |-------------------------------------|

G/C C
 
 |--3--| |--3--|

S S E E S S Q E E Q Q Q Q Q Q
 
 |-----------------------------|--------------------||
 |-12-12-12---12-12-15--12-(0)-|--7--7--7--7--7-(0)-||
 |-12-12-12---12-12-12--12-(0)-|--8--8--8--8--8-(0)-||
 |--x--x--x----x--x--x---x-----|-10-10-10-10-10-----||
 |-15-15-15---15-15-15--15-----|--------------------||
 |-----------------------------|--------------------||

|
 
 | |--3--| |--3--|

| S S E E S S Q E E Q Q Q Q Q Q
 
 |-----------------------------|--------------------||
 |-12-12-12---12-12-15--12-(0)-|--4--4--4--4--4-----||
 |-12-12-12---12-12-12--12-(0)-|--5--5--5--5--5-(0)-||
 |--x--x--x----x--x--x---x-----|--x--x--x--x--x-(0)-||
 |-15-15-15---15-15-15--15-----|--3--3--3--3--3-----||
 |-----------------------------|--------------------||

Verse
$
[Dm] S S S S E [Dm6] S S S S S S [Dm7] E E [Am]Q S S S S S S S S E E
 
 |----------------------------------------|------5-5h7p5p0---------|
 |-10-10-10-10---12-12-12-12-12-12-13-(0)-|----------------5h7h8p0-|
 |-10-10-10-10---10-10-10-10-10-10-10-(0)-|-2--2-------------------|
 |-12-12-12-12---12-12-12-12-12-12-12-----|-2--2-------------------|
 |----------------------------------------|-0--0-------------------|
 |----------------------------------------|------------------------|

|
| S S S S E S S S S S S E E Q S S S S S S S S E E
 
 |----------------7--7--7--7--7--7--8-----|-5--5-5-5h7p5p0---------|
 |-10-10-10-10---10-10-10-10-10-10-10-----|-5--5-----------5h7h8p0-|
 |--7--7--7--7----7--7--7--7--7--7--7-(0)-|-5--5-------------------|
 |--7--7--7--7----7--7--7--7--7--7--7-(0)-|-7--7-------------------|
 |----------------------------------------|-0--0-------------------|
 |----------------------------------------|------------------------|

[Dm] S S S S E [Dm6] S S S S S S [Dm7] E E
 
 |------------------------------------------|
 |-10-10-10-10---12-12-12-12-12-12-13---(0)-|
 |-10-10-10-10---10-10-10-10-10-10-10---(0)-|
 |-12-12-12-12---12-12-12-12-12-12-12-------|
 |------------------------------------------|
 |------------------------------------------|

|
| S S S S E S S S S S S S S E
 
 |----------------7--7--7--7----------------|
 |-10-10-10-10---10-10-10-10--x--x--x-x-----|
 |--7--7--7--7----7--7--7--7--x--x--x-x-(0)-|
 |--7--7--7--7----7--7--7--7--x--x--x-x-(0)-|
 |------------------------------------------|
 |------------------------------------------|

N.C.
PM-| PM---
E. E. E Q. S S
 
 |------------------------------|
 |------------------------------|
 |------------------------------|
 |------------------------------|
 |-3--2-------------------------|
 |-3--2---------------------0-0-|

|
| PM-| PM---
| |-3-|
| E. E. S S S S S S S S S S S
 
 |-------0h5p0--------2h3p0-----|
 |-------------5--7p0-----------|
 |------------------------------|
 |------------------------------|
 |-3--2-------------------------|
 |-3--2---------------------0-0-|
 ----| PM-------| PM|

E. E. E Q. S S E. E. E Q. S S
 
 |-----------------------------|---------------------------|
 |-----------------------------|---------------------------|
 |-----------------------------|---------------------------|
 |-----------------------------|---------------------------|
 |-3--2------------------------|-3--2----------------------|
 |-3--2--------------------0-0-|-1--0------------------0-0-|

|
 
 |----| PM-------| PM|

| |-3-| |-3-|
| E. E. S S S S S S S S E S S E. E. S S S S S S E S S
 
 |-----------------------------|-------7------8---7-10-----|
 |-------7p5p0-9p5p0-5p0-8-----|-------8---8----8----------|
 |-----------------------------|---------9-----------------|
 |-----------------------------|---------------------------|
 |-3--2------------------------|-3--2----------------------|
 |-3--2--------------------0-0-|-1--0------------------0-0-|

PM-|
E. E. E H
 
 |--------------------------|
 |--------------------------|
 |--------------------------|
 |--------------------------|
 |-3--2---------------------|
 |-1--0---------------------|

|
| PM-|
| E. E. S S S S S S E E
 
 |-------8-----10----8-12---|
 |-------8---8----10--------|
 |---------9----------------|
 |--------------------------|
 |-3--2---------------------|
 |-1--0---------------------|

[Dm] S S S S E [Dm6] S S S S S S [Dm7] E E [Am]Q S S S S S S S S E E
 
 |----------------------------------------|------5-5h7p5p0-----------|
 |-10-10-10-10---12-12-12-12-12-12-13-(0)-|----------------5h7h8p0---|
 |-10-10-10-10---10-10-10-10-10-10-10-(0)-|-2--2---------------------|
 |-12-12-12-12---12-12-12-12-12-12-12-----|-2--2---------------------|
 |----------------------------------------|-0--0---------------------|
 |----------------------------------------|--------------------------|

|
| S S S S E S S S S S S E E Q S S S S S S S S E E
 
 |----------------7--7--7--7--7--7--8-----|-5--5-5-5h7p5p0-----------|
 |-10-10-10-10---10-10-10-10-10-10-10-----|-5--5-----------5h7h8p0---|
 |--7--7--7--7----7--7--7--7--7--7--7-(0)-|-5--5---------------------|
 |--7--7--7--7----7--7--7--7--7--7--7-(0)-|-7--7---------------------|
 |----------------------------------------|-0--0---------------------|
 |----------------------------------------|--------------------------|

[Dm] S S S S E [Dm6] S S S S S S [Dm7] E E
 
 |----------------------------------------|
 |-10-10-10-10---12-12-12-12-12-12-13-(0)-|
 |-10-10-10-10---10-10-10-10-10-10-10-(0)-|
 |-12-12-12-12---12-12-12-12-12-12-12-----|
 |----------------------------------------|
 |----------------------------------------|

|
| S S S S E S S S S S S E E
 
 |----------------7--7--7--7--7--7--8-----|
 |-10-10-10-10---10-10-10-10-10-10-10-----|
 |--7--7--7--7----7--7--7--7--7--7--7-(0)-|
 |--7--7--7--7----7--7--7--7--7--7--7-(0)-|
 |----------------------------------------|
 |----------------------------------------|

N.C.
 
 PM-| PM-------| PM|

E. E. E Q. S S E. E. E Q. S S
 
 |------------------------------|-----------------------------|
 |------------------------------|-----------------------------|
 |------------------------------|-----------------------------|
 |------------------------------|-----------------------------|
 |-3--2-------------------------|-3--2------------------------|
 |-3--2---------------------0-0-|-3--2--------------------0-0-|

|
 
 | PM-| PM-------| PM|
 | |-3-| |-3-| |-3-|

| E. E. S S S S S S S S S S S E. E. S S S S S S S S E S S
 
 |-------0h5p0--------2h3p0-----|-----------------------------|
 |-------------5--7p0-----------|-------7p5p0-9p5p0-5p0-8-----|
 |------------------------------|-----------------------------|
 |------------------------------|-----------------------------|
 |-3--2-------------------------|-3--2------------------------|
 |-3--2---------------------0-0-|-3--2--------------------0-0-|

To Coda
[2/4]  
 
 PM-| PM-------|

E. E. E Q. S S E. E. E H S S E S S E
 
 |---------------------------|--------------------------|-------------------||
 |---------------------------|--------------------------|-------------------||
 |---------------------------|--------------------------|----------------12-||
 |---------------------------|--------------------------|-------12-12h14----||
 |-3--2----------------------|-3--2---------------------|-14h15-------------||
 |-1--0------------------0-0-|-1--0---------------------|-------------------||

|
 
 | PM-| PM-------|

| E. E. S S S S S S E S S E. E. S S S S S S E E S S E S S E
 
 |-------7------8---7-10-----|-------8-----10----8-12---|-------------------||
 |-------8---8----8----------|-------8---8----10--------|-------------------||
 |---------9-----------------|---------9----------------|----------------12-||
 |---------------------------|--------------------------|-------12-12h14----||
 |-3--2----------------------|-3--2---------------------|-14h15-------------||
 |-1--0------------------0-0-|-1--0---------------------|-------------------||

Chorus
[(Cmaj7/F)]  
[4/4] Gtrs I, II
E. S +E E E. S +E E +E E E E S S E S S E
 
 ||--------------------------------|--------------------------------|
 ||o----------------13----------12-|-(12)---------------------------|
 ||------12-(12)--------12-(12)----|------12-14------------------12-|
 ||--------------14----------------|--------------------12-12h14----|
 ||o-------------------------------|--------------14h15-------------|
 ||--13----------------------------|--------------------------------|

E. S +E E E. S +E E +E E E E S S E S S E
 
 |-------------------------------|---------------------------|
 |----------------13----------12-|-(12)----------------------|
 |-----12-(12)--------12-(12)----|------12-12--------------7-|
 |-------------14----------------|-------------------7-7h9---|
 |-------------------------------|--------------9h10---------|
 |-13----------------------------|---------------------------|

[(Gmaj7/C)]E. S +E E E. S +E E +E E E E S S E S S E
 
 |-----------------------|------------------------|
 |------------8--------7-|-(7)---7----------------|
 |----7-(7)------7-(7)---|-----7----------------7-|
 |----------9------------|----------------7-7h9---|
 |-----------------------|-----------9h10---------|
 |-8---------------------|------------------------|

E. S +E E E. S +E E +E E E E S S E S S E
 
 |-----------------------|-----------------------|
 |------------8--------7-|-(7)---7---------------|
 |----7-(7)------7-(7)---|-----7---------------4-|
 |----------9------------|---------------4-4h6---|
 |-----------------------|-----------6h7---------|
 |-8---------------------|-----------------------|

1.
[(Emaj7)]E. S +E E E. S +E E +E E E E S S E S S E
 
 |-----------------------|-----------------------|
 |------------5--------4-|-(4)---4---------------|
 |----4-(4)------4-(4)---|-----4---------------4-|
 |----------6------------|---------------4-4h6---|
 |-----------------------|-----------6h7---------|
 |-0---------------------|-----------------------|

E. S +E E E. S +E E +E E E E S S E S S E
 
 |-----------------------|------------------------------||
 |------------5--------4-|-(4)---4---------------------o||
 |----4-(4)------4-(4)---|-----4--------------------12--||
 |----------6------------|-----------------12-12h14-----||
 |-----------------------|-----------14h15-------------o||
 |-0---------------------|------------------------------||

2.
Gtr I
E. S +E E E. S +E E +E E E E S S E S S E
 
 |-----------------------|-----------------------|
 |------------5--------4-|-(4)---4---------------|
 |----4-(4)------4-(4)---|-----4---------------4-|
 |----------6------------|---------------4-4h6---|
 |-----------------------|-----------6h7---------|
 |-0---------------------|-----------------------|

|
| Gtr II
| E. S +E E E. S +E E +E E E E S S E S S E
 
 |-----------------------|-----------------------|
 |------------5--------4-|-(4)---4---------------|
 |----4-(4)------4-(4)---|-----4---------------4-|
 |----------6------------|---------------4-4h6---|
 |-----------------------|-----------6h7---------|
 |-0---------------------|-----------------------|

D.S. al Coda
C
 
 |--3--| |--3--|

E. S +E E E. S +E E Q Q Q Q Q Q
 
 |-----------------------|--------------------||
 |------------5--4-(4)-0-|--7--7--7--7--7-(0)-||
 |----4-(4)---4--4-(4)-0-|--8--8--8--8--8-(0)-||
 |----------6------------|-10-10-10-10-10-----||
 |-----------------------|--------------------||
 |-0---------------------|--------------------||

|
 
 | |--3--| |--3--|

| E. S +E E E. S +E E Q Q Q Q Q Q
 
 |-----------------------|--------------------||
 |------------5--4-(4)-0-|--4--4--4--4--4-----||
 |----4-(4)---4--4-(4)-0-|--5--5--5--5--5-(0)-||
 |----------6------------|--x--x--x--x--x-(0)-||
 |-----------------------|--3--3--3--3--3-----||
 |-0---------------------|--------------------||

Intro Recap
&
[Em7]S S S S E E S S S S E S S
 
 ||-----------------------------|
 ||o-------------10s8-7p0-5-7-7-|
 ||--7-7-7-7-7----------------x-|
 ||--x-x-x-x-x----------------5-|
 ||o-7-7-7-7-7------------------|
 ||-----------------------------|

|
| S S S S E E S S S S E S S
 
 ||-----------------------------|
 ||o-------------10s8-7p0-5-7-7-|
 ||--7-7-7-7-7----------------x-|
 ||--x-x-x-x-x----------------5-|
 ||o-7-7-7-7-7------------------|
 ||-----------------------------|

[G/C]  
 
 |--3--| |--3--|

+S S E E E E E E E E E S S E E S S Q Q
 
 |-------------------------12-14-15-|--------------------------|
 |-(7)---7-(0)----12-14-15----------|-12-12-12---12-12-15--12--|
 |-(x)---x-(0)-12-------------------|-12-12-12---12-12-12--12--|
 |-(5)---5--------------------------|--x--x--x----x--x--x---x--|
 |----------------------------------|-15-15-15---15-15-15--15--|
 |----------------------------------|--------------------------|

|
 
 | |--3--| |--3--|

| +S S E E E E E E E E E S S E E S S Q Q
 
 |-------------------------12-14-15-|--------------------------|
 |-(7)---7-(0)----12-14-15----------|-12-12-12---12-12-15--12--|
 |-(x)---x-(0)-12-------------------|-12-12-12---12-12-12--12--|
 |-(5)---5--------------------------|--x--x--x----x--x--x---x--|
 |----------------------------------|-15-15-15---15-15-15--15--|
 |----------------------------------|--------------------------|

1.
[D] S S E E S S [D7] Q [D] Q
 
 |--------------------------|
 |-10-10-10---10-10-13--10--|
 |-11-11-11---11-11-11--11--|
 |-12-12-12---12-12-12--12--|
 |--------------------------|
 |--------------------------|

|
| S S E E S S Q Q
 
 |--------------------------|
 |-10-10-10---10-10-13--10--|
 |-11-11-11---11-11-11--11--|
 |-12-12-12---12-12-12--12--|
 |--------------------------|
 |--------------------------|

G/C C
 
 |--3--| |--3--|

S S E E S S Q E E Q Q Q Q Q Q
 
 |-----------------------------|----------------------||
 |-12-12-12---12-12-15--12-(0)-|--7--7--7--7--7-(0)--o||
 |-12-12-12---12-12-12--12-(0)-|--8--8--8--8--8-(0)---||
 |--x--x--x----x--x--x---x-----|-10-10-10-10-10-------||
 |-15-15-15---15-15-15--15-----|---------------------o||
 |-----------------------------|----------------------||

|
 
 | |--3--| |--3--|

| S S E E S S Q E E Q Q Q Q Q Q
 
 |-----------------------------|----------------------||
 |-12-12-12---12-12-15--12-(0)-|--4--4--4--4--4------o||
 |-12-12-12---12-12-12--12-(0)-|--5--5--5--5--5-(0)---||
 |--x--x--x----x--x--x---x-----|--x--x--x--x--x-(0)---||
 |-15-15-15---15-15-15--15-----|--3--3--3--3--3------o||
 |-----------------------------|----------------------||

2.
[D] S S E E S S S S S S S S E
 
 |------------------------15p0-17s19-0-|
 |-10-10-10---10-10-15s17--------------|
 |-11-11-11---11-11--------------------|
 |-12-12-12---12-12--------------------|
 |-------------------------------------|
 |-------------------------------------|

|
| S S E E S S S S S S S S E
 
 |------------------------15p0-17s19-0-|
 |-10-10-10---10-10-15s17--------------|
 |-11-11-11---11-11--------------------|
 |-12-12-12---12-12--------------------|
 |-------------------------------------|
 |-------------------------------------|

G/C C
 
 |--3--| |--3--|

S S E E S S Q E E Q Q Q Q Q Q
 
 |-----------------------------|--------------------||
 |-12-12-12---12-12-15--12-(0)-|--7--7--7--7--7-(0)-||
 |-12-12-12---12-12-12--12-(0)-|--8--8--8--8--8-(0)-||
 |--x--x--x----x--x--x---x-----|-10-10-10-10-10-----||
 |-15-15-15---15-15-15--15-----|--------------------||
 |-----------------------------|--------------------||

|
 
 | |--3--| |--3--|

| S S E E S S Q E E Q Q Q Q Q Q
 
 |-----------------------------|--------------------||
 |-12-12-12---12-12-15--12-(0)-|--4--4--4--4--4-----||
 |-12-12-12---12-12-12--12-(0)-|--5--5--5--5--5-(0)-||
 |--x--x--x----x--x--x---x-----|--x--x--x--x--x-(0)-||
 |-15-15-15---15-15-15--15-----|--3--3--3--3--3-----||
 |-----------------------------|--------------------||

Tritones lol
Slower Q=156
$$
N.C.
Gtrs I, II
|-3-| |-3-| |--3--| |--3--|
E. S +E E E E E E. S +E E E E E E E E E. S +E E E E E
||-------------------|---------------------------|----------------------|
||o------------------|---------------------------|----------11-------14-|
||-------------------|----------6-----9-------12-|----9-(9)-------12----|
||-----------5-----8-|----5-(5)-----8------11----|-8-----------11-------|
||o----4-(4)-----7---|-4----------7-----10-------|----------------------|
||--3----------6-----|---------------------------|----------------------|
|--3--| |--3--|
E. S +E E E E E E E E
|------------12-------15-------18--||-|
|----11-(11)-------14-------17----o||-|
|-9-------------12-------15--------||-|
|----------------------------------||-|
|---------------------------------o||-|
|----------------------------------||-|
E. S +E E S S S S E. S +E E S S S S S S S S
||---------------------|--------------------------------|
||o--------------------|--------------------------------|
||---------------------|----------6-----9---------12----|
||-----------5-----8---|----5-(5)-----8---8----11----11-|
||o----4-(4)-----7---7-|-4----------7-------10----------|
||--3----------6-------|--------------------------------|
E. S +E E S S S S E. S +E E S S S S S S S S
|-------------------------|------------12-------15----------18-----||
|----------11-------14----|----11-(11)-------14----14----17----17-o||
|----9-(9)-------12----12-|-9-------------12----------15-----------||
|-8-----------11----------|----------------------------------------||
|-------------------------|---------------------------------------o||
|-------------------------|----------------------------------------||
To Dbl. Coda
TP TP TP
W W W H +Q +E E
|-18--------|-15--------|-12--------|-3------(3)--------||
|-17--------|-14--------|-11--------|-2b3r===(2)--(2)p0-||
|-----------|-----------|-----------|-------------------||
|-----------|-----------|-----------|-------------------||
|-----------|-----------|-----------|-------------------||
|-----------|-----------|-----------|-------------------||
Gr1m Breakdown
Slower Q=140
N.C.
PM--------| PM--------| PM----|
|-3-| |-3-| |-3-|
|---------------|---------------|-------------|---------------|
|---------------|---------------|-------------|---------------|
|-3-------------|-6-------------|-5---5---9---|-5-------------|
|-2-------------|-5-------------|-4---4---8---|-4-------------|
|-1-4-3-4-5-4-5-|-4-3-4-3-4-5-4-|-3---3---7---|-3-4-5-4-5-3-4-|
|-0-3-2-3-4-3-4-|-3-2-3-2-3-4-3-|-2---2---6---|-2-3-4-3-4-2-3-|
PM--------| PM--------|
|-3-| |-3-|
Q Q Q Q E E E E E E E E E E E E E E E E E E E E
|----------------|---------------|---------------|-------------|
|----------------|---------------|---------------|-------------|
|-9--12--15--18--|-3-------------|-6-------------|-5---5---9---|
|-8--11--14--17--|-2-------------|-5-------------|-4---4---8---|
|-7--10--13--16--|-1-4-3-4-5-4-5-|-4-3-4-3-4-5-4-|-3---3---7---|
|-6---9--12--15--|-0-3-2-3-4-3-4-|-3-2-3-2-3-4-3-|-2---2---6---|
\4
PM----| TP TP TP ~~~~
|-3-|
|---------------|------------|---------------|
|---------------|------------|---------------|
|-5-------------|-9----12----|-15----[17]----|
|-4-------------|-8----11----|-14------------|
|-3-4-5-4-5-3-4-|-7----10----|-13------------|
|-2-3-4-3-4-2-3-|-6-----9----|-12------------|
PM-----------| PM-------------------------| PM--------|
|-3-| |-3-| |----6----| |----6----|
Q Q Q Q Q Q Q Q Q Q Q Q Q Q S S S S S S Q S S S S S S Q
|-------------------|-------------------|--------------------------------|
|-------------------|-------------------|--------------------------------|
|-------------------|-6-----------------|-------------6--------------6---|
|-8-----------------|-5-----------------|-------------5--------------5---|
|-7--4--3--4--5-4-5-|-4--3--4--3--4-5-4-|-3-3-3-3-3-3-4--3-3-3-3-3-3-4---|
|-6--3--2--3--4-3-4-|-3--2--3--2--3-4-3-|-2-2-2-2-2-2-3--2-2-2-2-2-2-3---|
H.=H
\4
PM-------------| PM TP TP TP ~~~~
|-3-|
Q Q Q Q Q Q Q Q Q H H H H
|-------------|-------------|------------|---------------||
|-------------|-------------|------------|---------------||
|-------------|-------5-----|-9----12----|-15----[17]----||
|-8-----------|-------4-----|-8----11----|-14------------||
|-7--4--3--4--|-3-4-4-3--4--|-7----10----|-13------------||
|-6--3--2--3--|-2-3-3-2--3--|-6-----9----|-12------------||
Slower Q=120
N.C.
PM--------| PM--------|
|-3-| |-3-| |----6----| |----6----|
Q Q Q Q Q Q Q Q Q Q Q Q Q Q S S S S S S Q S S S S S S Q
|-------------------|-------------------|--------------------------------|
|-------------------|-------------------|--------------------------------|
|-9-----------------|-------------------|-------------6--------------6---|
|-8--5--4--5--6-5-6-|-5--4--5--4--5-6-5-|-------------5--------------5---|
|-7--4--3--4--5-4-5-|-4--3--4--3--4-5-4-|-3-3-3-3-3-3-4--3-3-3-3-3-3-4---|
|-6--3--2--3--4-3-4-|-3--2--3--2--3-4-3-|-2-2-2-2-2-2-3--2-2-2-2-2-2-3---|
TP TP
|-3-|
Q Q Q Q Q Q Q Q Q W W
|-------------|-------------:-----------:-------|
|-------------|-------------:-11--------:-14----|
|-9-----------|-------------:--9--------:-12----|
|-8--5--4--5--|-6-5-6-4--5--:--8--------:-11----|
|-7--4--3--4--|-5-4-5-3--4--:-----------:-------|
|-6--3--2--3--|-4-3-4-2--3--:-----------:-------|
TP TP TP TP
W W W +W
|-----------:-----------:-----------:---------||
|-17--------:-20--------:-23--------:-(23)----||
|-15--------:-18--------:-21--------:-(21)----||
|-14--------:-17--------:-20--------:-(20)----||
|-----------:-----------:-----------:---------||
|-----------:-----------:-----------:---------||
Interlude
N.C.
Wx4 Wx4
|------------|--------|
|------------|--------|
|------------|--------|
|------------|--------|
|------------|--------|
|------------|--------|
Gtr I
~~~~~~~
E S S S S S S S S S S S S S +S
|-----------------------------------------------|
|-----------------------------------------------|
|----12p0----12p0----12p0----12p0---------------|
|------------------------------------[9]b10r(9)-|
|-12------12------12------12------12------------|
|-----------------------------------------------|
~~~~~~~
E S S S S S S S S S S S S S +S
|-----------------------------------------------|
|-----------------------------------------------|
|----12p0----12p0----12p0----12p0----[9]b10r(9)-|
|-----------------------------------------------|
|-12------12------12------12------12------------|
|-----------------------------------------------|
~~~~~~~
E S S S S S S S S S S S S S +S
|-----------------------------------------------|
|-----------------------------------------------|
|----12p0----12p0----12p0----12p0---------------|
|------------------------------------[9]b10r(9)-|
|-12------12------12------12------12------------|
|-----------------------------------------------|
~~~~~~~ ~~~~~~~~~ ~~~~~~~~~ ~~~~~~~~~
E S S S S S S S +S +S +S +S +S +S +S
|----------------------------------------------------------------------|
|----------------------------------------------------------------------|
|----12p0----12p0----[9]b10r(9)-([9])b10r(9)-([9])b10r(9)-([9])b10r(9)-|
|----------------------------------------------------------------------|
|-12------12------12---------------------------------------------------|
|----------------------------------------------------------------------|
Gtrs I, II
E S S S S S S S S S S S S S S
||------------------------------------------|
||o-----------------------------------------|
||-----12p0----12p0----12p0----12p0----11p0-|
||------------------------------------------|
||o-12------12------12------12------12------|
||------------------------------------------|
E S S S S S S S S S S S S S S
|-----------------------------------------|
|-----------------------------------------|
|----12p0----12p0----12p0----12p0----9p0--|
|-----------------------------------------|
|-12------12------12------12------12------|
|-----------------------------------------|
~
E S S S S S S S S S S S S S S E S S S S S S H
|-----------------------------------------|-------------------------|
|-----------------------------------------|-------------------------|
|----12p0----12p0----12p0----12p0----11p0-|----12p0----12p0----9----|
|-----------------------------------------|-------------------------|
|-12------12------12------12------12------|-12------12------12------|
|-----------------------------------------|-------------------------|
PM----------| PM PM PM PM----------| PM PM PM
|-3-| |-3-|
a S S S E S E S E S E S S S a S S S E S E S E S E S S S
|---------------------2-------|---------------------2-------|
|-----------------5-------5---|-----------------5-------5---|
|-----------------------------|-----------------------------|
|---0h2h4-0-4-0-0---4---4---4-|---0h2h4-0-4-0-0---4---4---4-|
|-0---------------------------|-0---------------------------|
|-----------------------------|-----------------------------|
PM----------| PM PM PM PM----------| PM PM PM
|-3-| |-3-|
a S S S E S E S E S E S S S a S S S E S E S E S E S S S
|-----------------------------|---------------------2--------||
|-----------------5---5---5---|-----------------5-------5---o||
|-----------------------------|------------------------------||
|---0h2h4-0-4-0-0---4---4---4-|---0h2h4-0-4-0-0---4---4---4--||
|-0---------------------------|-0---------------------------o||
|-----------------------------|------------------------------||
Gtr I
S S S S S S S S S S S S S S S S S S S S S S S S S S S S S S S S
|---------------------------------|-------------------------------------|
|-8-----8-----8-----8-----8-------|--7------7-----7-----10-----10-------|
|---0-------0-----0-----0-----0---|-----0-------0-----0------0------0---|
|-----7---7-----7-----7-----7---7-|-------7---7-----7------7------7---7-|
|---------------------------------|-------------------------------------|
|---------------------------------|-------------------------------------|
|
| Gtr II
| W +W
|---------------------------------|-------------------------------------|
|-8-------------------------------|-(8)---------------------------------|
|---------------------------------|-------------------------------------|
|---------------------------------|-------------------------------------|
|---------------------------------|-------------------------------------|
|---------------------------------|-------------------------------------|
S S S S S S S S S S S S S S S S
|---------------------------------|
|-8-----8-----8-----8-----8-------|
|---0-------0-----0-----0-----0---|
|-----7---7-----7-----7-----7---7-|
|---------------------------------|
|---------------------------------|
|
| W
|---------------------------------|
|-8-------------------------------|
|---------------------------------|
|---------------------------------|
|---------------------------------|
|---------------------------------|
S S S S S S S S S S S S S S S S
|------------------------------------------------------||
|-10b11==10-10-10-10-10-10-10-10-10-10-10-10-10-10-10r-||
|--9------9--9--9--9--9--9--9--9--9--9--9--9--9--9--9--||
|------------------------------------------------------||
|------------------------------------------------------||
|------------------------------------------------------||
|
| +W
|------------------------------------------------------||
|-(8)--------------------------------------------------||
|------------------------------------------------------||
|------------------------------------------------------||
|------------------------------------------------------||
|------------------------------------------------------||
Bridge
Gtrs I, II
S S S S S S S S S S S S S S S S S S S S S S S S S S S S S S S S
||------------------------------0---|------------------------------------|
||o-8-8-8-7-7-7-7-7-7-7---8-7-7-7---|-8-8-8-7-7-7-7-7-7-7---8-----0------|
||--5-5-5-5-5-5-9-9-9-9---9-9-9-9---|-5-5-5-5-5-5-9-9-9-9---9-(0)---0----|
||--7-7-7-7-7-7-9-9-9-9---9-9-9-9---|-7-7-7-7-7-7-9-9-9-9---9--9---------|
||o-------------7-7-7-7---7-7-7-7---|-------------7-7-7-7---7------------|
||----------------------------------|------------------------------------|
D.S.S. al Dbl. Coda
E S E S E S S S S E S S E S E S E S S S S E S S
|-------------------------|------------------------------------||
|-8-8-8-8-7-7-7-7-7-7-7-7-|-10-10-10-10-12-12-12-12-13-12-x-x-o||
|-9-9-9-9-7-7-7-7-7-7-7-7-|-11-11-11-11-12-12-12-12-12-12-x-x--||
|-x-x-x-x-x-x-x-x-x-x-x-x-|--x--x--x--x--x--x--x--x--x--x-x-x--||
|-7-7-7-7-5-5-5-5-5-5-5-5-|--9--9--9--9-10-10-10-10-10-10-x-x-o||
|-------------------------|------------------------------------||
Interlude, again
Faster Q=162
&&
N.C.
E. a E. S S E. a E. S S E. a E. S S E. a E. S S E. a E. S S E. a E. S S
|-------------------------|-------------------------|--------------------------|
|-------------------------|-------------------------|--------------------------|
|-------------------------|-2--2S4--x-x-2--2S4--x-x-|-5--5S7--x-x-5--5S4--x-x--|
|-4--4S5--x-x-4--4S5--x-x-|-4--4S5--x-x-4--4S5--x-x-|-7--7S9--x-x-7--7S5--x-x--|
|-5--5S7--x-x-5--5S7--x-x-|-------------------------|--------------------------|
|-------------------------|-------------------------|--------------------------|
|---3---|
E. a E. S S E. a E. S S S
|------------------------------|
|------------------------------|
|-------------5--5S4-----------|
|-7--7S4--x-x-7--7S5--------------|
|-9--9S6--x-x---------------------|
|---------------------------------|
E. a E. S S E. a E. S S E. a E. S S E. a E. S S
|-------------------------|-------------------------|
|-------------------------|-------------------------|
|-------------------------|-2--2S4--x-x-2--2S4--x-x-|
|-4--4S5--x-x-4--4S5--x-x-|-4--4S5--x-x-4--4S5--x-x-|
|-5--5S7--x-x-5--5S7--x-x-|-------------------------|
|-------------------------|-------------------------|
S S S S S S S S S S S S S S S S S S S S S S S S E E Q
|------------------------------------------|------------------------||
|------------------------------------------|------------------------||
|----12-16p0----11-14p0------12p0-----11p0-|-8-8-8-8-4-4-4-4-5------||
|--------------------------9--------7------|-4-4-4-4-x-x-x-x-x------||
|-14---------12---------10--------9--------|-6-6-6-6-2-2-2-2-3------||
|------------------------------------------|------------------------||
S S S S +H S S S S S S S S +H.
||--12-----------------------------|-14--------------------|
||o----12---------------------0----|----12-----------------|
||--------12---------------12---12-|-------12--------------|
||-----------14-(14)----14---------|----------13-(13)------|
||o--------------------------------|-----------------------|
||---------------------------------|-----------------------|
|---6----|
S S S S S S S S S S S S S S S S E
|-------------------------------------------|
|-12p8----------12p8----------12-8----------|
|------9-------------9-------------9--------|
|--------10-7----------10-7----------10-----|
|-------------------------------------------|
|-------------------------------------------|
|---6----|
S S S S S S S S S S S S S S S S E
|-----------------------------------------|
|-12p8----------12p8----------12-8--------|
|------9-------------9-------------9------|
|--------10-7----------10-7----------10---|
|-----------------------------------------|
|-----------------------------------------|
|-3-|
E. e. S S e. E. S S E E E E S S S S S S E. 3x
|--/8--7--x-x-5--7--x-x-|-----------8-8-8-8-8-8------||
|-/10--8--x-x-7--8--x-x-|-/10---8---7-7-7-7-7-7-----o||
|-----------------------|-/11---9---8-8-8-8-8-8------||
|-----------------------|----------------------------||
|-----------------------|---------------------------o||
|-----------------------|----------------------------||
N.C.
E. a E. S S E. a E. S S
||--------------------------|
||o-------------------------|
||--------------------------|
||--4--4S5--x-x-4--4S5--x-x-|
||o-5--5S7--x-x-5--5S7--x-x-|
||--------------------------|
E. a E. S S E. a E. S S E. a E. S S E. a E. S S
|-------------------------|-------------------------|
|-------------------------|-------------------------|
|-2--2S4--x-x-2--2S4--x-x-|-5--5S7--x-x-5--5S4--x-x-|
|-4--4S5--x-x-4--4S5--x-x-|-7--7S9--x-x-7--7S5--x-x-|
|-------------------------|-------------------------|
|-------------------------|-------------------------|
|---3---|
E. a E. S S E. a E. S S S
|------------------------------|
|------------------------------|
|-------------5--5S4-----------|
|-7--7S4--x-x-7--7S5--------------|
|-9--9S6--x-x---------------------|
|---------------------------------|
E. a E. S S E. a E. S S E. a E. S S E. a E. S S
|-------------------------|-------------------------|
|-------------------------|-------------------------|
|-------------------------|-2--2S4--x-x-2--2S4--x-x-|
|-4--4S5--x-x-4--4S5--x-x-|-4--4S5--x-x-4--4S5--x-x-|
|-5--5S7--x-x-5--5S7--x-x-|-------------------------|
|-------------------------|-------------------------|
1.
S S S S S S S S S S S S S S S S S S S S S S S S E E Q
|-------------------------------------------------|-------------------------||
|-------------------------------------------------|------------------------o||
|-16-16-16-16-14-14-14-14-12-12-12-12-11-11-11-11-|-8-8-8-8-4-4-4-4-5-------||
|-12-12-12-12-10-10-10-10--9--9--9--9--7--7--7--7-|-4-4-4-4-x-x-x-x-x-------||
|-14-14-14-14-12-12-12-12-10-10-10-10--9--9--9--9-|-6-6-6-6-2-2-2-2-3------o||
|-------------------------------------------------|-------------------------||
2.
S S S S S S S S S S S S S S S S S S S S S S S S E E Q
|------------------------------------------|------------------------||
|------------------------------------------|-----------------0------||
|----12-16p0----11-14p0------12p0-----11p0-|-8-8-8-8-4-4-4-4-5------||
|--------------------------9--------7------|-4-4-4-4-x-x-x-x-x------||
|-14---------12---------10--------9--------|-6-6-6-6-2-2-2-2-3------||
|------------------------------------------|------------------------||
Breakdown
Slower Q=156
N.C.
Gtr I
PM PM-| PM----| PM---|
|---------6---------|
S E. S E. E S S S S S S E. S E E S S S S S a S S S E
||--------------------------------|----------12h14h15p14-12-(12)s10-12h14p12-|
||o-13----13------13----------13--|------------------------------------------|
||--16----16------16----------16--|------------------------------------------|
||---------------------------(17)-|------------------------------------------|
||o----0-----0--0----0-0-0-0------|-0--0-0-----------------------------------|
||--------------------------------|------------------------------------------|
Gtrs I, II Gtr I
PM PM-| PM--|
|-3-| |-3-| |-3-| |-3-|
S E. S E. E E E E E E E E E E E E E E E E
|------------------------|-------------------10p0---|
|--8-----8-------8-------|--8------8---7-8-7------0-|
|-11----11------11-------|-11-----11----------------|
|------------------------|--------------------------|
|------------------------|--------------------------|
|----0-----0--0----0-0-0-|----0-0-------------------|
Gtrs I, II Gtr I
PM PM-| PM----| PM---|
|---------6---------|
S E. S E. E S S S S S S E. S E E S S S S S a S S S E
|-------------------------------|----------12h14h15p14-12-(12)s10-12h14p12-|
|-13----13------13----------13--|------------------------------------------|
|-16----16------16----------16--|------------------------------------------|
|--------------------------(17)-|------------------------------------------|
|----0-----0--0----0-0-0-0------|-0--0-0-----------------------------------|
|-------------------------------|------------------------------------------|
1. 2.
Gtrs I, II
\2
PM PM PM PM PM-------| PM
E S E. E S S S S e E E S E. E S S S S e e E S E. E H
|----------0h2p0-------|----------0h1p0--------||------------------||
|-----2--------------0-|-----1----------1-----o||------1-----------||
|-----3----------3---4-|-----2-----------------||------2--------||
|-2---2--2---------4---|------------------2-2--||------------------||
|-4------4-------------|-3------3---------0-0-o||--3------3--------||
|-2------2-------------|-1------1--------------||--1------1--------||
Breakdown Part II
Slower Q=116
N.C.
7/8 4/4
PM PM| PM----------------| PM|
|----6----| |----6----|
E. S E E E T T T T T T T T E. S E E S S S S S S S S S S S S
|----------------------------|-----------------------------------|
|----------------------------|-----------------------------------|
|----9-----9-----------------|----9------------------------------|
|----8-----8-----------------|----8------------------------------|
|----7-----7-----------------|----7------------------------------|
|-0----0-0---0-5-7-8-7-5-7-5-|-0----0-0-3p0h3p0h3p0h3p0h3p0h3p0--|
7/8 4/4
PM PM| PM----------------| PM|
E. S E E E T T T T T T T T E. S E E Q +Q
|----------------------------|-----------------------|
|----------------------------|----------12-----(12)--|
|----9-----9-----------------|----9-----14b16--(14)--|
|----8-----8-----------------|----8------------------|
|----7-----7-----------------|----7------------------|
|-0----0-0---0-5-7-8-7-5-7-5-|-0----0-0--------------|
7/8
PM PM| PM------------|
E. S E E E T T T T T T T T
|-----------------------------|
|-----------------------------|
|----9-----9------------------|
|----8-----8------------------|
|----7-----7------------------|
|-0----0-0---0-5-7-8-7-5-7-5--|
4/4 7/8 4/4
\0.5____/
PM PM| PM PM| PM----------------| PM|
E. S E E E E E E E. S E E E T T T T T T T T E. S E E E +E +Q
|--------------------|----------------------------|----------------------------|
|------------12---12-|----------------------------|----------------------------|
|----9-------15---15-|----9-----9-----------------|----9---------()-(5)--|
|----8---------------|----8-----8-----------------|----8---------()-(5)--|
|----7---------------|----7-----7-----------------|----7-----------------------|
|-0----0-0-----------|-0----0-0---0-5-7-8-7-5-7-5-|-0----0-0-------------------|
PM------------------|
|----6----| |----6----|
E. S E E S S S S S S S S S S S S E. S E E S S S S S S S S
|----------------------------------|--------------------------------|
|----------------------------------|------------12s11s12---12s11s12-|
|----9-----9-----------------------|----9-------15s14s15---15s14s15-|
|----8-----8-----------------------|----8---------------------------|
|----7-----7-------------------5-6-|----7---------------------------|
|-0----0-0---5-6-7-8-7-6-5-7-8-----|-0----0-0-----------------------|
Gtr III
PM| PM------------------| TP
|----6----| |----6----|
E. S E E S S S S S S S S S S S S E. S E E H
|----------------------------------|----------x----|
|----------------------------------|----------x----|
|----9-----9-----------------------|----9-----x----|
|----8-----8-----------------------|----8----------|
|----7-----7-------------------5-6-|----7----------|
|-0----0-0---5-6-7-8-7-6-5-7-8-----|-0----0-0------|
Gtrs I, II Gtr III
PM------------------| TP
|----6----| |----6----|
E. S E E S S S S S S S S S S S S E. S E E E E Q
|----------------------------------|--------------x--|
|----------------------------------|--------------x--|
|----9-----9-----------------------|----9---------x--|
|----8-----8-----------------------|----8------------|
|----7-----7-------------------5-6-|----7------------|
|-0----0-0---5-6-7-8-7-6-5-7-8-----|-0----0-0-3------|
Gtrs I, II
PM----------------------|
|----6----| |----6----| |----6----| |----6----|
E. S E E S S S S S S S S S S S S E. S E E S S S S S S S S S S S S
|----------------------------------|----------------------------------|
|----------------------------------|----------------------------------|
|----9-----9-----------------------|----9-----------------------------|
|----8-----8-----------------------|----8-----------------------------|
|----7-----7-------------------5-6-|----7-----------------------------|
|-0----0-0---5-6-7-8-7-6-5-7-8-----|-0----0-0-3p0h3p0h3p0h3p0h3p0h3p0-|
|----6----| |----6----| |----6----| |----6----|
S S S S S S S S S S S S S S S S S S S S S S S S
|-------------------------------------------------:
|-------------------------------------------------:
|-------

Important: The song above is NOT stored on the Chordie server. The original song is hosted at www.guitaretab.com. Chordie works as a search engine and provides on-the-fly formatting. Chordie does not index songs against artists'/composers' will. To remove this song please click here.

Text color:
Chord color:
Chord grids: 
Font size:    
Page size: 

Am D D7 Dm Dm6 Dm7 Em7 G/C Gadd9
Rate #2 of 3 versions

Login - add to songbook

SHARE PAGE  



You need to log in to post comments