Guitar Tabs, Chords and Lyrics
Server problems seems to be fixed. Chordie has been experiencing problems with songs disappearing. These issues now seems to be fixed, but still verifying the fix. If you find anything strange, please email admin@chordie.com.


The Dark Trail  The Fall of Troy

This is copied right off the Powertab that's on here, but I've corrected the wrong parts in it.
Hope you like.
Artist: The Fall of Troy
Song: The Dark Trail
Album: Manipulator
E E E E E E E. Q E E E E. E. E S S E E E
 
 E||--------------------------------|--------|--------------------------|
 B||--------------------------------|--------|--------------------------|
 G||--------------------------------|--------|--------------------------|
 D||--6--6--6--6--6--6--6---6-------|--7--7--|-------------2-2----2--2--|
 A||--5--5--5--5--5--5--5---5-------|--7--7--|--3---3---3--0-0----0--0--|
 D||--6--6--6--6--6--6--6---6-------|--7--7--|--3---3---3---------------|

S S S S S S S S S S S S E E E. E. E S S S S S S S S
 
 --------------------------------|-----------------5-5-5-5-5-5-|
 --------------------------------|-----------------------------|
 ----------5-------2-2-----2--2--|-----------------------------|
 ----------5---x-x-2-2-x-x-2--2--|-------------2-2-------------|
 --3---x-x-3---x-x-0-0-x-x-0--0--|--3---3---3--0-0-------------|
 --3-L-x-x-------------x-x-------|--3---3---3------------------|

|--3--|
S S S S E E E S S S S E E E E. E S S S S E E
 
 --5-5-5-5------------------------|---------------------------|
 ----------5----------------------|---------------------------|
 -------------5-------------------|--7---7---7----------------|
 ----------------6--3-3-x-x-3--3--|--7---7---7--3-3-x-x-3--3--|
 -------------------3-3-x-x-3--3--|--5---5---5--3-3-x-x-3--3--|
 -------------------3-3-x-x-3--3--|-------------3-3-x-x-3--3--|

E S S S S S S S S S S E E E. E. E E S S S S S S
 
 ------------------------------|----------------------------|
 ------------------------------|----------------1-3-3-3-3-3-|
 --7-7--9-9--------------------|--7---7---7-----------------|
 --7-7--9-9-------3-3-x-x-3--3-|--7---7---7--3--------------|
 --5-5--7-7----x-x3-3-x-x-3--3-|--5---5---5--3--------------|
 -------------x-x-3-3-x-x-3--3-|-------------3--------------|

S S S S S S S S S S S S E E E. E. E S S E E E
 
 ----------1---------------------|--------------------------|
 --1-3-3-3---0-1-----------------|--------------------------|
 ------------------2-2-----2--2--|--------------------------|
 ------------------2-2-x-x-2--2--|--3---3---3--2-2----2--2--|
 ------------------0-0-x-x-0--0--|--3---3---3--0-0----0--0--|
 ----------------------x-x-------|--3---3---3---------------|

S S S S S S S S S S S S E E E. E. E S S S S S S S S
 
 --------------------------------|-----------------5-5-5-5-5-5-|
 --------------------------------|-----------------------------|
 ------------------2-2-----2--2--|-----------------------------|
 ----------5---x-x-2-2-x-x-2--2--|--3---3---3--2-2-------------|
 --3---x-x-3---x-x-0-0-x-x-0--0--|--3---3---3--0-0-------------|
 --3---x-x-------------x-x-------|--3---3---3------------------|

|--3--|
S S S S E E E S S S S E E E. E. E S S S S E E
 
 --5-5-5-5------------------------|---------------------------|
 ----------5----------------------|---------------------------|
 -------------5-------------------|--7---7---7----------------|
 ----------------6--3-3-x-x-3--3--|--7---7---7--3-3-x-x-3--3--|
 -------------------3-3-x-x-3--3--|--5---5---5--3-3-x-x-3--3--|
 -------------------3-3-x-x-3--3--|-------------3-3-x-x-3--3--|

E S S S S S S S S S S E E E. E. E E S S S S S S S S S S S S S S
 
 -------------------------------|----------------------------|----------1-------|
 -------------------------------|----------------1-3-3-3-3-3-|--1-3-3-3---0-1---|
 --7------9---------------------|--7---7---7-----------------|------------------|
 --7--x-x-9-------3-3-x-x-3--3--|--7---7---7--3--------------|------------------|
 --5--x-x-7---x-x-3-3-x-x-3--3--|--5---5---5--3--------------|------------------|
 -------------x-x-3-3-x-x-3--3--|-------------3--------------|------------------|

E. E. S S S S S S S S S S E. E. S S S S S S S S S S
 
 ------------------------------|----------------0-------------|
 ------------------------------|--------------3-------3-1-----|
 --2---2---x-x-0-2-x-x-0-2-x-x-|------------------x-x-----x-x-|
 --2---2-----------------------|--2---2---x-x-----------------|
 --0---0-----------------------|--2---2---x-x-----------------|
 ------------------------------|--2---2---x-x-----------------|

E. E. S S S S S S S S S S E. E. S S E E S S S S
 
 ------------------------------|-------------------3p-0---------|
 ----------------0-------------|--1---1-------3g5--------3------|
 --------------2-------2-0-----|--0---0---x-x--------------2p-0-|
 --3---3---x-x-----x-x-----x-x-|----------x-x-------------------|
 --3---3---x-x-----------------|--3---3---x-x-------------------|
 --3---3---x-x-----------------|--------------------------------|

E. E. S S S S S S S S S S E. E. S S E. E. S S
 
 ------------------------------|--------------------------|
 ------------------------------|--------------5---5-------|
 --2---2---x-x-0-2-x-x-0-2-x-x-|----------x-x-5---5---x-x-|
 --2---2-----------------------|--3---3-------3---3---x-x-|
 --0---0-----------------------|--3---3-------------------|
 ------------------------------|--3---3-------------------|

E. E. E E. E. E E. E. E E. E. E
 
 ------------------------|-----------------------|
 --1----------3----------|--5---5---5------------|
 ------0----------0------|-------------4---------|
 ------------------------|-----------------------|
 ----------3----------3--|-----------------------|
 ------------------------|-----------------------|

E. E. S S S S S S S S S S E. E. S S S S S S S S S S
 
 ------------------------------|-------------------------------|
 ------------------------------|--------------3h-5-----3-1-----|
 --2---2---x-x-0-2-x-x-0-2-x-x-|-------------------x-x-----x-x-|
 --2---2-----------------------|--2---2---x-x------------------|
 --0---0-----------------------|--2---2---x-x------------------|
 ------------------------------|--2---2---x-x------------------|

E. E. S S S S S S S S S S E. E. S S E E S S S S
 
 ------------------------------|--------------3g0--3--0h--------|
 ----------------0-------------|--1---1------------------3------|
 --------------2-------2-0-----|--0---0---x-x--------------2p-0-|
 --3---3---x-x-----x-x-----x-x-|----------x-x-------------------|
 --3---3---x-x-----------------|--3---3---x-x-------------------|
 --3---3---x-x-----------------|--------------------------------|

E. E. S S S S S S S S S S E. E. S S E. E. S S
 
 ------------------------------|--------------------------|
 ------------------------------|--------------5---5-------|
 --2---2---x-x-0-2-x-x-0-2-x-x-|----------x-x-5---5---x-x-|
 --2---2-----------------------|--3---3-------3---3---x-x-|
 --0---0-----------------------|--3---3-------------------|
 ------------------------------|--3---3-------------------|
 |--3--| |--3--| 

E. E. E E. E. E E. E. E E E E E E E S S S S E E
 
 ------------------------|-------------------------------|----------------|
 --1----------3----------|-5---5---5---------------------|----------------|
 ------0----------0------|-----------4-------------------|----------------|
 ------------------------|-------------6--6--6--6--L-----|--7-7-x-x-7--7--|
 ----------3----------3--|-------------5--5--5--5--L-----|--7-7-x-x-7--7--|
 ------------------------|-------------6--6--6--6--L-----|--7-7-x-x-7--7--|

E. E. E S S E E E S S S S S S S S S S S S E E
 
 --------------------------|--------------------------------|
 --------------------------|--------------------------------|
 --------------------------|----------5-------2-2-----2--2--|
 --3---3---3--x-x-7--7--7--|----------5---x-x-2-2-x-x-2--2--|
 --3---3---3--x-x-7--7--7--|--3---x-x-3---x-x-0-0-x-x-0--0--|
 --3---3---3--x-x-7--7--7--|--3---x-x-------------x-x-------|

|--3--|
E. E. E S S S S S S S S S S S S E E E S S S S E E
 
 -----------------5-5-5-5-5-5-|--5-5-5-5------------------------|
 -----------------------------|----------5----------------------|
 -----------------------------|-------------5-------------------|
 -------------2-2-------------|----------------6--3-3-x-x-3--3--|
 --3---3---3--0-0-------------|-------------------3-3-x-x-3--3--|
 --3---3---3------------------|-------------------3-3-x-x-3--3--|

E. E. E S S S S E E E S S S S S S S S S S E E
 
 ---------------------------|-------------------------------|
 ---------------------------|-------------------------------|
 --7---7---7----------------|--7------9---------------------|
 --7---7---7--3-3-x-x-3--3--|--7--x-x-9-------3-3-x-x-3--3--|
 --5---5---5--3-3-x-x-3--3--|--5--x-x-7---x-x-3-3-x-x-3--3--|
 -------------3-3-x-x-3--3--|-------------x-x-3-3-x-x-3--3--|

E. E. E E S S S S S S S S S S S S S S S S S S E E
 
 ----------------------------|----------1---------------------|
 ----------------1-3-3-3-3-3-|--1-3-3-3---0-1-----------------|
 --7---7---7-----------------|------------------2-2-----2--2--|
 --7---7---7--3--------------|------------------2-2-x-x-2--2--|
 --5---5---5--3--------------|------------------0-0-x-x-0--0--|
 -------------3--------------|----------------------x-x-------|

E. E. E S S E E E S S S S S S S S S S S S E E
 
 --------------------------|--------------------------------|
 --------------------------|--------------------------------|
 --------------------------|----------5-------2-2-----2--2--|
 -------------2-2----2--2--|----------5---x-x-2-2-x-x-2--2--|
 --3---3---3--0-0----0--0--|--3---x-x-3---x-x-0-0-x-x-0--0--|
 --3---3---3---------------|--3---x-x-------------x-x-------|

|--3--|
E. E. E S S S S S S S S S S S S E E E S S S S E E
 
 -----------------5-5-5-5-5-5-|--5-5-5-5------------------------|
 -----------------------------|----------5----------------------|
 -----------------------------|-------------5-------------------|
 -------------2-2-------------|----------------6--3-3-x-x-3--3--|
 --3---3---3--0-0-------------|-------------------3-3-x-x-3--3--|
 --3---3---3------------------|-------------------3-3-x-x-3--3--|

E. E. E S S S S E E E S S S S S S S S S S E E
 
 ---------------------------|-------------------------------|
 ---------------------------|-------------------------------|
 --7---7---7----------------|--7------9---------------------|
 --7---7---7--3-3-x-x-3--3--|--7--x-x-9-------3-3-x-x-3--3--|
 --5---5---5--3-3-x-x-3--3--|--5--x-x-7---x-x-3-3-x-x-3--3--|
 -------------3-3-x-x-3--3--|-------------x-x-3-3-x-x-3--3--|

E. E. E E S S S S S S S S S S S S S S E. E. S S S S S S S S S S
 
 ----------------------------|----------1-------|------------------------------|
 ----------------1-3-3-3-3-3-|--1-3-3-3---0-1---|------------------------------|
 --7---7---7-----------------|------------------|--2---2---x-x-0-2-x-x-0-2-x-x-|
 --7---7---7--3--------------|------------------|--2---2-----------------------|
 --5---5---5--3--------------|------------------|--0---0-----------------------|
 -------------3--------------|------------------|------------------------------|

E. E. S S S S S S S S S S E. E. S S S S S S S S S S
 
 ----------------0-------------|------------------------------|
 --------------3-------3-1-----|----------------0-------------|
 ------------------x-x-----x-x-|--------------2-------2-0-----|
 --2---2---x-x-----------------|--3---3---x-x-----x-x-----x-x-|
 --2---2---x-x-----------------|--3---3---x-x-----------------|
 --2---2---x-x-----------------|--3---3---x-x-----------------|

E. E. S S E E S S S S E. E. S S S S S S S S S S
 
 -------------------3--0h--------|------------------------------|
 --1---1-------3g5--------3------|------------------------------|
 --0---0---x-x--------------2p-0-|--2---2---x-x-0-2-x-x-0-2-x-x-|
 ----------x-x-------------------|--2---2-----------------------|
 --3---3---x-x-------------------|--0---0-----------------------|
 --------------------------------|------------------------------|

E. E. S S E. E. S S E. E. E E. E. E E. E. E E. E. E
 
 --------------------------|------------------------|------------------------|
 --------------5---5-------|--1----------3----------|--5---5---5------L---L--|
 ----------x-x-5---5---x-x-|------0----------0------|-------------4----------|
 --3---3-------3---3---x-x-|------------------------|------------------------|
 --3---3-------------------|----------3----------3--|------------------------|
 --3---3-------------------|------------------------|------------------------|

E. E. S S S S S S S S S S E. E. S S S S S S S S S S
 
 ------------------------------|----------------0-------------|
 ------------------------------|--------------3-------3-1-----|
 --2---2---x-x-0-2-x-x-0-2-x-x-|------------------x-x-----x-x-|
 --2---2-----------------------|--2---2---x-x-----------------|
 --0---0-----------------------|--2---2---x-x-----------------|
 ------------------------------|--2---2---x-x-----------------|

E. E. S S S S S S S S S S E. E. S S E E S S S S
 
 ------------------------------|--------------3g0--3--0h--------|
 ----------------0-------------|--1---1------------------3------|
 --------------2-------2-0-----|--0---0---x-x--------------2p-0-|
 --3---3---x-x-----x-x-----x-x-|----------x-x-------------------|
 --3---3---x-x-----------------|--3---3---x-x-------------------|
 --3---3---x-x-----------------|--------------------------------|

E. E. S S S S S S S S S S E. E. S S E. E. S S
 
 ------------------------------|--------------------------|
 ------------------------------|--------------5---5-------|
 --2---2---x-x-0-2-x-x-0-2-x-x-|----------x-x-5---5---x-x-|
 --2---2-----------------------|--3---3-------3---3---x-x-|
 --0---0-----------------------|--3---3-------------------|
 ------------------------------|--3---3-------------------|

E. E. E E. E. E E. E. E E Q.
 
 ------------------------|-----------------------|
 --1----------3----------|--5---5---5------------|
 ------0----------0------|-----------4-----------|
 ------------------------|-------------6---------|
 ----------3----------3--|-------------6---------|
 ------------------------|-------------6---------|
 |---3--| |---3--| 

S S S S S S S S S S S S S S S S S S
 
 |---14-10---------------6-10-14-10-------------------|
 |---------11p---------8------------11h---------------|
 |*------------12p---9------------------12p---9-------|
 |*----------------9------------------------9---------|
 |----------------------------------------------------|
 |----------------------------------------------------|
 |---3--| |---3--| 

S S S S S S S S S S S S S S S S S S
 
 --14-10---------------6-10-14-10-------------------|
 --------11p---------8------------11h---------------|
 ------------12p---9------------------12p---9-------|
 ----------------9------------------------9---------|
 ---------------------------------------------------|
 ---------------------------------------------------|
 |--3--| |--3--| 

S S S S S S S S S S S S S S S S S S S S S E S S S S S S S S S S S
 
 --7p-----------5-3-2-L-5---------0---------|------1-5--1-----------0-L-------|
 ----------7h-8-----------7-8p-7p---0-------|----3--------3-------1-----1-----|
 -----9-9h----------------------------------|--3------------3---2---------2---|
 -------------------------------------------|-----------------3-------------3-|
 -------------------------------------------|---------------------------------|
 -------------------------------------------|---------------------------------|

S S E S S S E S S S S S S S S S E S S S E S S S S S S S
 
 --5---5----5---5----11---11--------||------------------------11---11-------|
 --4---4----4---4----10---10--------||--10---10----10---10----10---10-------|
 --2---2----2---2-----8----8-------*||---8----8-----8----8-----8----8-------|
 ----------------------------------*||---7----7-----7----7------------------|
 -----------------------------------||--------------------------------------|
 -----------------------------------||--------------------------------------|

S S E S S S E S E E E E E E
 
 ------------------------11-----11-----11-----|
 --10---10----10---10----10-----10-----10-----|
 ---8----8-----8----8-----8------8------8-----|
 ---7----7-----7----7-------------------------|
 ---------------------------------------------|
 ---------------------------------------------|

PM PM PM PM PM PM PM PM PM
 
 |--3--| |--3--| |--3--| 

E. E. E E E S S S S S S E. E. S S Q H
 
 -------------------------------------------|-------------------------------|
 --15--------------15-----------------------|------15------------15b--------|
 --20--------------20-----------------------|------20------------20---------|
 -------(0)---(0)------0--------------------|-------------------------------|
 -------(0)---(0)------0--0--0--0--0--0--0--|--0--------0-0-0---------------|
 -------(0)---(0)------0--0--0--0--0--0--0--|--0--------0-0-0---------------|

PM PM PM PM PM PM PM PM PM
 
 |--3--| |--3--| |--3--| 

E. E. E E E S S S S S S E. E. S S Q H
 
 -------------------------------------------|-------------------------------|
 --15--------------15-----------------------|------15------------15b--------|
 --20--------------20-----------------------|------20------------20---------|
 -------(0)---(0)------0--------------------|-------------------------------|
 -------(0)---(0)------0--0--0--0--0--0--0--|--0--------0-0-0---------------|
 -------(0)---(0)------0--0--0--0--0--0--0--|--0--------0-0-0---------------|

PM PM PM
 
 |-3-| |-3-| |-3-| |-3-| 

Q. S S E. E. S S E. E. E S S S S S S S S S S S S
 
 -------------------------------|--------------------------------------|
 -------------------------------|--------------------------------------|
 -------------------------------|--------------------------------------|
 ---15--------------------------|--------------------------------------|
 ------------3--3--3---6---2--2-|--2---5----0--8-8-8-8-----8-8-8-8-----|
 --/15~------3--3--3---6---2--2-|--2---5p---0--8-8-8-8-----8-8-8-8-----|

PM PM PM
 
 |-3-| |-3-| |-3-| |-3-| 

Q. S S E. E. S S E. E. E S S S S S S S S S S S S
 
 -------------------------------|--------------------------------------|
 -------------------------------|--------------------------------------|
 -------------------------------|--------------------------------------|
 ---15--------------------------|--------------------------------------|
 ------------3--3--3---6---2--2-|--2---5----0--8-8-8-8-----8-8-8-8-----|
 --/15~------3--3--3---6---2--2-|--2---5p---0--8-8-8-8-----8-8-8-8-----|

PM PM PM PM PM PM PM PM PM
 
 |--3--| |--3--| |--3--| 

E. E. E E E S S S S S S E. E. S S Q H
 
 -------------------------------------------|-------------------------------|
 --15--------------15-----------------------|------15------------15b--------|
 --20--------------20-----------------------|------20------------20---------|
 -------(0)---(0)------0--------------------|-------------------------------|
 -------(0)---(0)------0--0--0--0--0--0--0--|--0--------0-0-0---------------|
 -------(0)---(0)------0--0--0--0--0--0--0--|--0--------0-0-0---------------|

PM PM PM PM PM PM PM PM PM
 
 |--3--| |--3--| |--3--| 

E. E. E E E S S S S S S E. E. S S Q H
 
 -------------------------------------------|-------------------------------|
 --15--------------15-----------------------|------15------------15b--------|
 --20--------------20-----------------------|------20------------20---------|
 -------(0)---(0)------0--------------------|-------------------------------|
 -------(0)---(0)------0--0--0--0--0--0--0--|--0--------0-0-0---------------|
 -------(0)---(0)------0--0--0--0--0--0--0--|--0--------0-0-0---------------|

PM PM PM
 
 |-3-| |-3-| |-3-| |-3-| 

Q. S S E. E. S S E. E. E S S S S S S S S S S S S
 
 -------------------------------|--------------------------------------|
 -------------------------------|--------------------------------------|
 -------------------------------|--------------------------------------|
 ---15--------------------------|--------------------------------------|
 ------------3--3--3---6---2--2-|--2---5----0--8-8-8-8-----8-8-8-8-----|
 --/15~------3--3--3---6---2--2-|--2---5p---0--8-8-8-8-----8-8-8-8-----|

PM PM PM
|-3-| |-3-|
Q. S S E. E. S S E. E. E S S S S S S Q
 
 -------------------------------|-------------------------------|
 -------------------------------|-------------------------------|
 -------------------------------|-------------------------------|
 ---15--------------------------|-------------------------------|
 ------------3--3--3---6---2--2-|--2---5----0--8-8-8-8----------|
 --/15~------3--3--3---6---2--2-|--2---5p---0--8-8-8-8----------|

E. E. S S S S S S S S S S E. E. S S S S S S S S S S
 
 ------------------------------|----------------0-------------|
 ------------------------------|--------------3-------3-1-----|
 --2---2---x-x-0-2-x-x-0-2-x-x-|------------------x-x-----x-x-|
 --2---2-----------------------|--2---2---x-x-----------------|
 --0---0-----------------------|--2---2---x-x-----------------|
 ------------------------------|--2---2---x-x-----------------|

E. E. S S S S S S S S S S E. E. S S S S S S S S S S
 
 ------------------------------|-------------------3-------3------|
 ----------------0-------------|--1---1-------3S-5-L-3S-5S-L------|
 --------------2-------2-0-----|--0---0---x-x----------------2p-0-|
 --3---3---x-x-----x-x-----x-x-|----------x-x---------------------|
 --3---3---x-x-----------------|--3---3---x-x---------------------|
 --3---3---x-x-----------------|----------------------------------|

E. E. S S S S S S S S S S E. E. S S E. E. S S
 
 ------------------------------|--------------------------|
 ------------------------------|--------------5---5-------|
 --2---2---x-x-0-2-x-x-0-2-x-x-|----------x-x-5---5---x-x-|
 --2---2-----------------------|--3---3-------3---3---x-x-|
 --0---0-----------------------|--3---3-------------------|
 ------------------------------|--3---3-------------------|

tr
E. E. E E. E. E E. E. E H
 
 ------------------------|-------------------------|
 --1----------3----------|--5---5------3(5)--------|
 ------0----------0------|----------4--------------|
 ------------------------|-------------------------|
 ----------3----------3--|-------------------------|
 ------------------------|-------------------------|

E. E. S S S S S S S S S S E. E. S S S S S S S S S S
 
 ------------------------------|----------------0-------------|
 ------------------------------|--------------3-------3-1-----|
 --2---2---x-x-0-2-x-x-0-2-x-x-|------------------x-x-----x-x-|
 --2---2-----------------------|--2---2---x-x-----------------|
 --0---0-----------------------|--2---2---x-x-----------------|
 ------------------------------|--2---2---x-x-----------------|
 |--3--| |--3-| 

E. E. S S S S S S S S S S E. E. S S E E S S S S S S
 
 ------------------------------|-------------------3--3h-5p-3p-0------|
 ----------------0-------------|--1---1-------3g5---------------------|
 --------------2-------2-0-----|--0---0---x-x--------------------2p-0-|
 --3---3---x-x-----x-x-----x-x-|----------x-x-------------------------|
 --3---3---x-x-----------------|--3---3---x-x-------------------------|
 --3---3---x-x-----------------|--------------------------------------|

E. E. S S S S S S S S S S E. E. S S E. E. S S
 
 ------------------------------|--------------------------|
 ------------------------------|--------------5---5-------|
 --2---2---x-x-0-2-x-x-0-2-x-x-|----------x-x-5---5---x-x-|
 --2---2-----------------------|--3---3-------3---3---x-x-|
 --0---0-----------------------|--3---3-------------------|
 ------------------------------|--3---3-------------------|

E. E. E E. E. E E. E. E H
 
 ------------------------|----------------------|
 --1----------3----------|---5---5---5----------|
 ------0----------0------|--------------4-------|
 ------------------------|----------------------|
 ----------3----------3--|----------------------|
 ------------------------|----------------------|

[E] [E] [E] [E] [E] [E] [E] [E] [E] [E] [E] [E] [E] [E] [E] [E] [E] [E]  
 
 |---------------------------|--------------------|--------------------|
 |---------------------------|--------------------|--------------------|
 |*--------------------------|--------------------|--------------------|
 |*--11--11--11--11--11--11--|--7--7--7--7--7--7--|--------------------|
 |----9---9---9---9---9---9--|--5--5--5--5--5--5--|--5--5--5--4--4--4--|
 |----9---9---9---9---9---9--|--5--5--5--5--5--5--|--0--0--0--0--0--0--|

PM PM PM PM PM
E E E E E E E E E E Q E E E E Q
 
 ------------------------------||----------------------|---------------------|
 ------------------------------||----------------------|---------------------|
 --------(0)--(0)--(0)--(0)--*-||*---------------------|---------------------|
 --5--5---5----4----4----4---*-||*--------11-----12----|--------7s--9--------|
 --2--2---2----2----2----2-----||-------------9--------|---------------10----|
 --2--2---2----2----2----2-----||---9--9---------------|--5--5---------------|

PM PM PM PM PM PM PM
E E E E E E E E E E Q
 
 --------------------|---------------------||
 --------------------|---------------------||
 --------------------|-------------------*-||
 --------4-----2-----|--------5-----4----*-||
 --------------------|-----------2---------||
 --0--0-----0-----0--|--2--2---------------||

Duration Legend
 
 ---------------

W - whole
H - half
Q - quarter
E - 8th
S - 16th
T - 32nd
X - 64th
. - note dotted
|-n-| - n-tuplets
Tablature Legend
 
 ----------------

L - tied note
x - dead note
g - grace note
(n) - ghost note
> - accentuded note
NH - natural harmonic
AH - artificial harmonic
TH - tapped harmonic
SH - semi harmonic
PH - pitch harmonic
h - hammer on
p - pull off
b - bend
br - bendRelease
pb - preBend
pbr - preBendRelease
brb - bendReleaseBend
\n/ - tremolo bar dip
\n - tremolo bar dive
-/n - tremolo bar Release up
/n\ - tremolo bar inverted dip
/n - tremolo bar return
-\n - tremolo bar Release down
S - shift slide
s - legato slide
/ - slide into from below or out of upwards
\ - slide into from above or out of downwards
~ - vibrato
W - wide vibrato
tr - trill
TP - tremolo picking
T - tapping
S - slap
P - pop
< - fade in
^ - brush up
v - brush down

Important: The song above is NOT stored on the Chordie server. The original song is hosted at www.guitaretab.com. Chordie works as a search engine and provides on-the-fly formatting. Chordie does not index songs against artists'/composers' will. To remove this song please click here.

Text color:
Chord color:
Chord grids: 
Font size:    
Page size: 

E
Rate #1 of 1 versions

Login - add to songbook

SHARE PAGE  



You need to log in to post comments