Guitar Tabs, Chords and Lyrics
Major upgrade!! After one year development the new version of Chordie is now online! Please give feedback.


Mistress Mabel  The Fratellis

Riff 1:
[B] [E7]  
 
 e|--7-------7-----7------7----(0)-(0)-(0)-(0)--|
 B|--7-------7-----7------7----(0)-(0)-(0)-(0)--|
 G|--8---8---8-----8------8-----7---7---7---7---|
 D|--9---9---9--x--9---x--9--x--6---6---6---6---|
 A|--9---9---9--x--9---x--9--x--7---7---7---7---|
 E|--7---7---7--x--7---x--7--x--0---0---0---0---|

Riff 2:
[B] [E]  
 
 e|---------------(0)--(0)--(0)-|
 B|-(4)--x--(4)----0----0----0--|
 G|--4---x---4-----1----2----2--|
 D|--4---x---4-----2----2----2--|
 A|--2---x---2-----2----2----2--|
 E|----------------0----0----0--|

Riff 3:
[E] [F#]  
 
 e|--0---0---0---0----2---2---2---2--|
 B|--0---0---0---0----2---2---2---2--|
 G|--1---1---1---1----3---3---3---3--| (x2)
 D|--2---2---2---2----4---4---4---4--|
 A|--2---2---2---2----4---4---4---4--|
 E|--0---0---0---0----2---2---2---2--|

Riff 4:
[B] [F#]  
 
 e|--------------------------|
 B|-(4)--(4)-----------------|
 G|--4----4------------------| (x2)
 D|--4----4----4-----4----4--|
 A|--2----2----4-----4----4--|
 E|------------2-----2----2--|

[E] [D] [E]  
 
 e|--0---0---0---0-----0--------------------------|
 B|--0---0---0---0-----0---(7)-(7)--(9)-(9)-x-(9)-|
 G|--1---1---1---1--x--1----7---7----9---9--x--9--|
 D|--2---2---2---2--x--2----7---7----9---9--x--9--|
 A|--2---2---2---2--x--2----5---5----7---7--x--7--|
 E|-(0)-(0)-(0)-(0)-x-(0)-------------------------|

Riff 5:
[G] [A]  
 
 e|-(3)-(3)--(5)-(5)-(5)-|
 B|-(3)-(3)--(5)-(5)-(5)-|
 G|--4---4----6---6---6--|
 D|--5---5----7---7---7--|
 A|--5---5----7---7---7--|
 E|--3---3----5---5---5--|

Riff 6:
[F#] [B]  
 
 e|--2--2--2----7--7--------|
 B|--2--2--2----7--7--------|
 G|--3--3--3----8--8--------|
 D|--4--4--4----9--9--(x2)--|
 A|--4--4--4----9--9--------|
 E|--2--2--2----7--7--------|

[C#] [D] [D#] [E] [F] [F#] [F#] [C#] [F]  
 
 e|------------------------|----------------|------------|
 B|------------------------|----------------|--11--------|
 G|--6--7--8--9--10-11-----|--11------------|--11--------|
 D|--6--7--8--9--10-11-(x4)|--11--11--(x4)--|--11--(x16)-|
 A|--4--5--6--7--8--9------|--9---11--------|--9---------|
 E|------------------------|------9---------|------------|

Riff 7:
[B]  
 
 e|--7--7--7--7-----7-----7-----7--7--7--7-------|--7--7------|
 B|--7--7--7--7-----7-----7-----7--7--7--7-------|--7--7------|
 G|--8--8--8--8-----8-----8-----8--8--8--8-------|--8--8------|
 D|--9--9--9--9--x--9--x--9--x--9--9--9--9--(x3)-|--9--9--(x9)|
 A|--9--9--9--9--x--9--x--9--x--9--9--9--9-------|--9--9------|
 E|--7--7--7--7--x--7--x--7--x--7--7--7--7-------|--7--7------|

Verse 1:
[B]Mistress [E]Mabel, [B]seriously [E]wrong
[B]Clears my [E]table [B]badly, then she's [E]gone
[B]Takes a liberty if you [E7]let her
[B]Yeah shes old, but she should know[E7] better
[B]Oh dear [E]Mabel, [B]please don't put me [E]on
Verse 2:
[B]Mistress [E]Mabel, [B]all the kids [E]agree
[B]You're un[E]stable, [B]curiously [E]free
[B]Wind them down and then keep them [E7]kickin'
[B]Sunken eyed and all panic s[E7]tricken
[B]Oh dear [E]Mabel [B]is what worries [E]me
Prechorus:
Well [E]hem-line ratbag, [F#]so they told her
[E]Last night's name-tag, a[F#]cross her shoulder
Chorus:
And [B]tell me [F#]where all the [B]days have [F#]gone when
You [E]robbed my cradle, [D]tell me [E]Mabel
[B]Where d'you [F#]go when you [B]can't go [F#]on
With this [E]filthy fable, [D]tell me [E]Mabel
Verse 3:
[B]Mistress [E]Mabel, [B]won't you marry [E]me?
[B]I'm un[E]able to [B]take it serious[E]ly
[B]I've been good and you'll be a [E7]minute
I [B]wish you would or I'll drop you [E7]in it
[B]Oh dear [E]Mabel, [B]won't you marry [E]me?
Prechorus:
Well [E]hem-line ratbag, [F#]so they told her
[E]Last night's name-tag, a[F#]cross her shoulder
Chorus:
And [B]tell me [F#]where all the [B]days have [F#]gone when
You [E]robbed my cradle, [D]tell me [E]Mabel
[B]Where d'you [F#]go when you [B]can't go [F#]on
With this [E]filthy fable, [D]tell me [E]Mabel
[G]Tell me [A]Mabel
(Middle)
Chorus:
And [B]tell me [F#]where are the [B]days have [F#]gone when
You [E]robbed my cradle, [D]tell me [E]Mabel
[B]Where d'you [F#]go when you [B]can't go [F#]on
With this [E]filthy fable, [D]tell me [E]Mabel
And [B]tell me [F#]where all the [B]days have [F#]gone when
You [E]robbed my cradle, [D]tell me [E]Mabel
[B]Where d'you [F#]go when you [B]can't go [F#]on
With this [E]filthy fable, [D]tell me [E]Mabel
[G]Tell me [A]Mabel
Intro:
Riff 1 (x6)
Verse 1:
Riff 2 (x4)
Riff 1 (x2)
Riff 2 (x2)
Bridge 1:
Riff 1 (x2)
Verse 2:
Riff 2 (x4)
Riff 1 (x2)
Riff 2 (x2)
Prechorus:
Riff 3 (x1)
Chorus 1:
Riff 4 (x2)
Bridge 2:
Riff 1 (x4)
Verse 3:
Riff 2 (x4)
Riff 1 (x2)
Riff 2 (x2)
Prechorus:
Riff 3 (x1)
Chorus 2:
Riff 4 (x2)
Riff 5 (x1)
Middle:
Riff 6 (x1)
Chorus 3:
Riff 4 (x4)
Riff 5 (x1)
Outro:
Riff 7 (x1)

Important: The song above is NOT stored on the Chordie server. The original song is hosted at www.guitaretab.com. Chordie works as a search engine and provides on-the-fly formatting. Chordie does not index songs against artists'/composers' will. To remove this song please click here.

Text color:
Chord color:
Chord grids: 
Font size:    
Page size: 

A B C# D D# E E7 F F# G
Rate #1 of 6 versions

Jango Player

Login - add to songbook

SHARE PAGE  




You need to log in to post comments