Guitar Tabs, Chords and Lyrics
Server problems seems to be fixed. Chordie has been experiencing problems with songs disappearing. These issues now seems to be fixed, but still verifying the fix. If you find anything strange, please email admin@chordie.com.


Syndicate  The Fray

Anything in Parenthesis is not completely needed
Weird Chords Used
[Fsus2] [Am7] [Gsus] [Dm11]  
 
 --8-- --3-- --5-- --0-- --3-- --3--
 --8-- --1-- --5-- --1-- --3-- --3--
 --10-or--2-- --5--or--0-- --0-- --5--
 --10- --3-- --5-- --2-- --0-- --3--
 --8-- ----- --7-- --0-- --3-- --5--
 ----- -(1)- --5-- ----- --3-- -----

[Dm7] [Fmaj9] [Csus2] [F6] [G/B] [Fmaj7]  
 
 --3-- --0-- --0-- --1-- --3-- --0--
 --4-- --1-- --3-- --3-- --3-- --1--
 --3-- --0-- --0-- --2-- --0-- --2--
 --5-- --3-- --2-- --3-- --0-- --3--
 --3-- --0-- --3-- ----- --2-- -----
 ----- --1-- ----- -(1)- ----- -(1)-

ending chords are at the bottom
intro
| 1 e + a 2 e + a 3 e + a 1 e + a 2 e + a 3 e + a
 
 e--------------------------------------------------------------|
 B--------------------------------------------------------------|
 G-------------16-----------------------------------------------|
 D-----14-17--(14)-17-14-12--14--12----14--17-14-12-17----17----| repeat
 A-/15--------(15)------(15)----(15)------(15)------15----14-15-|
 E--------------------------------------------------------------|

Last time don't play the last 15
when repeating after the first
chorus play the 15 and 14 together
[Fsus2]Halfway around the [Am7]world
Lies the one[Gsus4] thing that you wa[C]nt
[Dm11]Buried in the g[Am7]round, [F]hun[(C)]dreds [F]of [Am]miles [C]down
[Fsus2]First thing that ari[Am7]ses in your min[G]d when you aw[C]ake
[Dm7]Is bending you til you break
[Dm7]Let me hold you now
[Fmaj9]Baby close your e[Csus2]yes
Don't o[G]pen til the mor[Am7]ning light
[Fmaj9]Baby don't forg[Csus2]et
Am7 Gsus4 *
we haven't lost it all yet
*play the intro through once
[Fsus2]Don't know what your m[Am7]ade of
Til the one[G] thing that you w[C]ant
Is c[Dm]oming with the d[Am7]awn and [F]su[(C)]dden[F]ly [Am]change[C]s
[Fsus2] The Monday, [Am7]syndicate meets [G]everyone the s[C]ame
[Dm7]But all we've lost to the flame
[Dm7]Listen to me now
[Fmaj9]Baby close your [Csus2]eyes
Don't o[G]pen til the mor[Am7]ning light
[Fmaj9]Don't ever fo[Csus2]rget
We h[Am7]aven't lost it [Gsus4]all yet
[Fmaj9]All we know for [Csus2]sure
Is al[Em]l that we are f[Am7]ighting for
[Fmaj9]Baby don't fo[Csus2]rget
Am7 Gsus4 *
We haven't lost it all yet
*play through the whole intro
[Am7]Someday when th[F6]is is o[C]ver[G]
[Am7]We may still hav[F6]e no [C]answer[Dm7]
[Am7]For now it's wh[F6]en I hold[C] her
[G/B]We are [Am7]closer, [F6]we are c[C]loser
[Dm7]We are[Fmaj9] closer, we are [Dm7]closer
[Fmaj9]Baby close your [Csus2]eyes
Don't o[G]pen til the mor[Am7]ning light
[Fmaj9]Don't ever fo[Csus2]rget
We h[Am7]aven't lost it [Gsus4]all yet
[Fmaj9]All we know for [Csus2]sure
Is al[Em]l that we are f[Am7]ighting for
[Fmaj9]Baby don't fo[Csus2]rget
[Am7]We haven't lost it[Gsus4] all [Fmaj7]yet
[C] [G] [Am7]  
We are [Fmaj7]closer[C] [Am7] [G]
We are [Fmaj9]closer[Csus2] [G] [Am7]
(We haven't lost it all yet)
we are closer[Csus2] [Am7] [Gsus4]
(We haven't lost it all yet)
We are [Am9]closer[Dm7/F]
Cadd9 Cmaj9/D Am9 Dm7/F Csus2(hold)
Cadd9 Cmaj9/D Am9 Dm7/F Csus2(hold)
 
 --0-- -(0)- ----- --1-- --3--|
 --1-- --3-- ----- --1-- --3--|
 --0-- --0-- --4-- --2-- --5--|
 --0-- --2-- --5-- ----- --5--|
 --3-- --5-- --3-- ----- --3--|
 ----- ----- --5-- --1-- -----|


Important: The song above is NOT stored on the Chordie server. The original song is hosted at www.guitaretab.com. Chordie works as a search engine and provides on-the-fly formatting. Chordie does not index songs against artists'/composers' will. To remove this song please click here.

Text color:
Chord color:
Chord grids: 
Font size:    
Page size: 

Am Am7 Am9 C Csus2 Dm Dm11 Dm7 Dm7/F Em F F6 Fmaj7 Fmaj9 Fsus2 G G/B Gsus Gsus4
Rate #1 of 6 versions

Jango Player

Login - add to songbook

SHARE PAGE  



You need to log in to post comments