Guitar Tabs, Chords and Lyrics
Server problems seems to be fixed. Chordie has been experiencing problems with songs disappearing. These issues now seems to be fixed, but still verifying the fix. If you find anything strange, please email admin@chordie.com.


Absolute  The Fray

Song: Absolute
Album: The Fray
Tabbed by: gustavoaraujo999@hotmail.com
This tab is a modified version of this one -
http://www.ultimate-guitar.com/tabs/t/the_fray/absolute_tab.htm
So, the song has the same progression of chords almost all the way
through (verse 1, verse 2, chorus and outro are the same).
[Intro & Verse 1] 
[G#] [D#] [C] [A#]  
 
 e|--11----11----11--|-10----10----10---|-6-----6-----6---|------------------|
 B|------------------|------------------|-----------------|-6-----6-----6----|
 G|----8-----8-----8-|---8-----8------8-|---7-----7-----7-|----8-----8-----8-|
 D|------10----10----|------10----10----|-----8-----8-----|------8-----8-----|
 A|------------------|------------------|-----------------|------------------|
 E|------------------|------------------|-----------------|------------------|

[G#]Ive seen this one be[D#]fore, the [C]girl she gets [A#]away
[G#]Everybody [D#]knows it but [C]no one tries to [A#]stop it
Cause she [G#]barely even [D#]knows him but if [C]she could see i[A#]nside
E[G#]verything is [D#]quiet as she [C]waits to [A#]tell him who she[(C)] is
[Pre-Cborus] 
([C]is)[G#] Is this [D#]all- [A#]we- [C]get- [G#] to be [D#]ab--s[A#]olute
 
 e|----------------------------------------------|
 B|----------------------------------------------|
 G|--5-------------8--------5-------------8------|
 D|--5--6----------8----8---5----6--------8---8--|
 A|--3--6----------6----8---3----6--------6---8--|
 E|-----4---------------6--------4------------6--|

[Cborus] 
[G#]Quiet but Im [D#]sure there is[C] something h[A#]ere
[G#]Tell me every[D#]thing because[C] I want to h[A#]ear
[D#]Absolute
[Verse 2] 
[G#] [D#] [C] [A#]  
 
 e|----------|---------|---------|---------|
 B|----------|---------|---------|---------|
 G|----------|-8-8-8-8-|-5-5-5-5-|---------|
 D|--6-6-6-6-|-8-8-8-8-|-5-5-5-5-|-8-8-8-8-|
 A|--6-6-6-6-|-6-6-6-6-|-3-3-3-3-|-8-8-8-8-|
 E|--4-4-4-4-|---------|---------|-6-6-6-6-|

Its a [G#]kiss sits u[D#]pon on her lips that [C]waits for planes and [A#]battle ships
She [G#]wants to be a [D#]dancer and[C] he has got a [A#]picture
On his [G#]wall and its a [D#]sailor in a [C]new port every [A#]night
Yet [G#]man was born to [D#]trouble like [C]sparks fly [A#]upwards innocent
[Pre-Cborus] 
[C] [G#] Is this [D#]all- [A#]we- [C]get-[G#] to be [D#]ab--s[A#]olute
 
 e|----------------------------------------------|
 B|----------------------------------------------|
 G|--5-------------8--------5-------------8------|
 D|--5--6----------8----8---5----6--------8---8--|
 A|--3--6----------6----8---3----6--------6---8--|
 E|-----4---------------6--------4------------6--|

[Cborus x2] 
[G#]Quiet but Im [D#]sure there is[C] something h[A#]ere
[G#]Tell me every[D#]thing because[C] I want to h[A#]ear
[G#]Quiet but Im [D#]sure there is[C] something h[A#]ere
[G#]Tell me every[D#]thing because[C] I want to h[A#]ear
[Solo] 
 
 e|---------|-----------|---------------|------------------|
 B|---------|-----6p4---|-----6p4-------|-----6-4----------|
 G|--8------|-5/7-----5-|-5/7-----5/7-8-|-5/7-----5---/12--|
 D|--x-[8x]-|-----------|---------------|------------------|
 A|--6------|-----------|---------------|------------------|
 E|---------|-----------|---------------|------------------|

[Bridge] 
[G#]All we are and [D#]all we [C]want
[G#]40 years [D#]come and [A#]gone
[G#]All we are in [D#]photo[C]graphs
[G#]Will never be [A#]taken
[Post-Bridge] 
[D#]Quiet but Im sure there is something here
[D#]Tell me everything cause I want to hear
[Cborus x2] 
[G#]Quiet but Im [D#]sure there is[C] something h[A#]ere
[G#]Tell me every[D#]thing because[C] I want to h[A#]ear
[G#]Quiet but Im [D#]sure there is[C] something h[A#]ere
[G#]Tell me every[D#]thing because[C] I want to h[A#]ear
[Outro] 
[G#] [D#] T[C]here is something [A#]here (absolute)
[G#] [D#] T[C]here is something [A#]here (abso[G#]lute)

Important: The song above is NOT stored on the Chordie server. The original song is hosted at www.guitaretab.com. Chordie works as a search engine and provides on-the-fly formatting. Chordie does not index songs against artists'/composers' will. To remove this song please click here.

Text color:
Chord color:
Chord grids: 
Font size:    
Page size: 

A# C D# G#
Rate #1 of 12 versions

Jango Player

Login - add to songbook

SHARE PAGE  



You need to log in to post comments