Guitar Tabs, Chords and Lyrics
Server problems seems to be fixed. Chordie has been experiencing problems with songs disappearing. These issues now seems to be fixed, but still verifying the fix. If you find anything strange, please email admin@chordie.com.


You Found Me  The Fray

Here's the intro-piano part, which continues into the first verse. For the
rest of it I just arpeggiate the chords; I use version 6 and found it works
pretty well. I just put them down here so you don't have to flip around
between tabs. It's pretty strait forward, just listen to the song.
Capo 4
INTRO:
 
 e|------------------|------------------|------------------|
 B|-----3-------3----|-----3-------3----|-----3-------3----|
 G|---0---0---0---0--|---0---0---0---0--|---0---0---0---0--|
 D|------------------|------------------|------------------|
 A|------------------|------------------|------------------|
 E|------------------|------------------|------------------|

VERSE: (this next four bars essentially repeats 4 times for the verse)
 
 e|------------------|------------------|------------------|-----------------|
 B|-----3-------3----|-----3-------3----|-----3-------3----|-----3-------3---|
 G|---0---0---0---0--|---0---0---0---0--|---0---0---0---0--|---0---0---0---0-|
 D|------------------|-2----------------|-0----------------|-----------------|
 A|-0-------2--------|------------------|------------------|-3---------------|
 E|------------------|------------------|---------3--------|-----------------|

I found God on the corner of First and Amistad
 
 e|------------------|------------------|------------------|-----------------|
 B|-----3-------3----|-----3-------3----|-----3-------3----|-----3-------3---|
 G|---0---0---0---0--|---0---0---0---0--|---0---0---0---0--|---0---0---0---0-|
 D|------------------|-2----------------|-0----------------|-----------------|
 A|-0-------2--------|------------------|------------------|-3---------------|
 E|------------------|------------------|---------3--------|-----------------|

where the west was all but won.
 
 e|------------------|------------------|------------------|-----------------|
 B|-----3-------3----|-----3-------3----|-----3-------3----|-----3-------3---|
 G|---0---0---0---0--|---0---0---0---0--|---0---0---0---0--|---0---0---0---0-|
 D|------------------|-2----------------|-0----------------|-----------------|
 A|-0-------2--------|------------------|------------------|-3---------------|
 E|------------------|------------------|---------3--------|-----------------|

All a- lone, smokin his last cigarette. I said
 
 e|------------------|------------------|------------------|-----------------|
 B|-----3-------3----|-----3-------3----|-----3-------3----|-----3-------3---|
 G|---0---0---0---0--|---0---0---0---0--|---0---0---0---0--|---0---0---0---0-|
 D|------------------|-2----------------|-0----------------|-----------------|
 A|-0-------2--------|------------------|------------------|-3---------------|
 E|------------------|------------------|---------3--------|-----------------|

where've you been? He said,"ask an-y- thing."
Where were [Em]you?
When [D]everything was [C]falling apart
All my [Em]days were [D]spent by the [C]telephone
It never [Em]rang
And [D]all I needed w[C]as a call
That never [Em]came
To the [D]corner of first and [C]Amistad
[Em]Lost and in[C]secure [G]You found me, [D]you found me
[Em]Lying on [C]the floor [G]Surrounded, [D]surrounded
[Em]Whyd you have to [C]wait? [G]Where were you? [D]Where were you?
[Em]Just a little [C]late [G]You found me, [D]you found me
In the [Em]end [D]everyone ends up [C]alone
Losing [Em]her, [D]the only one whos ever[C] known
Who I [Em]am, [D]who Im not, who I [C]want to be
No way to [Em]know how [D]long she will be [C]next to me
[Em]Lost and in[C]secure [G]You found me, [D]you found me
[Em]Lying on [C]the floor [G]Surrounded, [D]surrounded
[Em]Whyd you have to [C]wait? [G]Where were you? [D]Where were you?
[Em]Just a little [C]late [G]You found me, [D]you found me
[D]Early mornin[C]g, City breaks[D]
[C]Ive been [D]calling for years and [C]years and years and [D]years
[C]And you never [D]left me no [C]messages
You never send me no [D]letters
You got [C]some kind of [D]nerve, [C]taking all I want
[Em]Lost and in[C]secure [G]You found me, [D]you found me
[Em]Lying on [C]the floor [G]Surrounded, [D]surrounded
[Em]Whyd you have to [C]wait? [G]Where were you? [D]Where were you?
[Em]Just a little [C]late [G]You found me, [D]you found me
[Em]Whyd you have to [C]wait? [G]to find me [D]to find me.
And that's all folks...thanks!

Important: The song above is NOT stored on the Chordie server. The original song is hosted at www.guitaretab.com. Chordie works as a search engine and provides on-the-fly formatting. Chordie does not index songs against artists'/composers' will. To remove this song please click here.

Text color:
Chord color:
Chord grids: 
Font size:    
Page size: 

C D Em G
Rate #2 of 12 versions

Jango Player

Login - add to songbook

SHARE PAGE  




You need to log in to post comments