Guitar Tabs, Chords and Lyrics
Server problems seems to be fixed. Chordie has been experiencing problems with songs disappearing. These issues now seems to be fixed, but still verifying the fix. If you find anything strange, please email admin@chordie.com.


Vienna  The Fray

How To Save A Life - The Fray
Track 9 - Vienna
Standard Open D Tuning
Best For Acoustic Guitar
There are two options for tuning:
NUMBER ONE - OPEN D (With a capo on 1)
Some people might prefer this as open D is a more common tuning and could be used on a
set with other songs!
It also means only tuning strings down, which reduces the chance of them breaking on
etc..! All following
notation is relative to the capo!
d (Down)
A (Down)
F# (Down)
[d]  
[A]d (Down)
NUMBER TWO - OPEN Eb
This is an alternative if you dont have a capo and are willing to risk your strings, but
is esentially the same!
Eb (Down)
Bb (Down)
[G]Eb (Up)
Bb (Up)
Eb (Down)
Recommended Chords:
[Eb] [Ebsus2] [Ebsus4] [Abadd9] [Absus4add9] [Absus2add9] 
 
 Eb |-----0------------0-----------0----------0---------0-----------0-------|
 Bb |-----0------------0-----------0----------0---------0-----------0-------|
 G |----12-----------10----------13----------5---------7-----------3-------|
 Eb |-----0------------0-----------0----------5---------5-----------5-------|
 Bb |-----0------------0-----------0----------5---------5-----------5-------|
 Eb |-----0------------0-----------0----------5---------5-----------5-------|

[Bb] [Bbsus2] [Fm7add11] [Cm7] 
 
 Eb |-----0------------0-----------0----------0---------|
 Bb |-----0------------0-----------0----------0---------|
 G |-----7------------5-----------1----------8---------|
 Eb |-----7------------7-----------2----------9---------|
 Bb |-----7------------7-----------2----------9---------|
 Eb |-----7------------7-----------2----------9---------|

INTRO
[Abadd9] [Bb] [Cm7] [Bb]  
[Abadd9] [Bb] [Cm7] [Bb]  
[Abadd9] [Bb] [Cm7] [Bb]  
VERSE 1
The [Eb]day's last [Ebsus2]one-way [Ebsus4]ticket [Eb]train pulls in
[Abadd9] [Absus4add9] [Abadd9] [Absus2add9]  
We [Eb]smile for the [Ebsus2]casual [Ebsus4]closure [Eb]capturing
[Abadd9] [Absus4add9] [Abadd9] [Absus2add9]  
There goes the [Fm7add11]downpour
Here goes my [Cm7]fare thee well
CHORUS
There's [Abadd9]really no [Bb]way to [Cm7]reach me [Bb](x3)
'Cause I'm [Abadd9]al - [Fm7add11]ready [Bbsus2]gone
VERSE 2
[Eb]Only so [Ebsus2]many [Ebsus4]words that [Eb]we can say
[Abadd9] [Absus4add9] [Abadd9] [Absus2add9]  
Spo[Eb]ken u[Ebsus2]pon long-[Ebsus4]distance [Eb]melody
[Abadd9] [Absus4add9] [Abadd9] [Absus2add9]  
This is my [Fm7add11]hello
This is my [Cm7]goodness
CHORUS
There's [Abadd9]really no [Bb]way to [Cm7]reach me [Bb](x3)
'Cause I'm [Abadd9]al - [Fm7add11]ready [Bbsus2]gone
MIDDLE 8
Maybe in [Fmadd11]five or ten yours and mine will [Abadd9]meet again
Straighten this [Cm7]whole thing [Bb]out
Maybe then [Fmadd11]honesty need not be [Abadd9]feared as a friend or an [Cm7]ene - [Bbsus2]my
This is the [Fm7add11]distance
And this is my [Cm7]game face
CHORUS
There's [Abadd9]really no [Bb]way to [Cm7]reach me [Bb](x2)
Is there [Abadd9]really no [Bb]way to [Cm7]reach me?[Bb]
Am I [Abadd9]al - [Fm7add11]ready...[Bbsus2]
So this is your [Fm7add11]maverick
This is [Cm7]Vienna[Ebsus2]
Tabbed by Andrew and a Braindead Monkey.

Important: The song above is NOT stored on the Chordie server. The original song is hosted at www.guitaretab.com. Chordie works as a search engine and provides on-the-fly formatting. Chordie does not index songs against artists'/composers' will. To remove this song please click here.

Text color:
Chord color:
Chord grids: 
Font size:    
Page size: 

A Abadd9 Absus4add9 Bb Bbsus2 Cm7 Eb Ebsus2 Fmadd11 G
Rate #1 of 10 versions

Jango Player

Login - add to songbook

SHARE PAGE  




You need to log in to post comments