Guitar Tabs, Chords and Lyrics
Major upgrade!! After one year development the new version of Chordie is now online! Please give feedback.


Crossing the Rubicon   The Human Abstract

 
 []---------------------------------------[]
 []-----------------17~-19-20-22b24-22-20-[]
 []---------16h17h19----------------------[]
 []-16h17h19------------------------------[]
 []---------------------------------------[]
 []---------------------------------------[]

 


 


 Sweep picking.


 


 

 
 []-19-15------15-19-15------15-19-15------15-19-15------15-[]
 []------17--17--------17--17--------17--17--------17--17---[]
 []--------16------------16------------16------------16-----[]
 []---------------------------------------------------------[]
 []---------------------------------------------------------[]
 []---------------------------------------------------------[]
 []-17-14------14-17-14------14-17-14------14-17-14------14-[]
 []------15--15--------15--15--------15--15--------15--15---[]
 []--------14------------14------------14------------14-----[]
 []---------------------------------------------------------[]
 []---------------------------------------------------------[]
 []---------------------------------------------------------[]
 []-15-12------12-15-12------12-15-12---------------------12-[]
 []------13--13--------13--13--------13-----------------13---[]
 []--------12------------12------------12-------------12-----[]
 []--------------------------------------14---------14-------[]
 []----------------------------------------15-12-15----------[]
 []----------------------------------------------------------[]
 []-15-14-12-14-12--12-----------------[] 


Important: The song above is NOT stored on the Chordie server. The original song is hosted at www.guitaretab.com. Chordie works as a search engine and provides on-the-fly formatting. Chordie does not index songs against artists'/composers' will. To remove this song please click here.

This song is displayed as text-only. Transposing and tuning is only available for chordpro-songs.
Rate #2 of 2 versions

Login - add to songbook

SHARE PAGE  




You need to log in to post comments