Guitar Tabs, Chords and Lyrics
Songbooks are teporarily down. Dont panic. Working on recovering it. Dont save new songs in songbooks!


See the World  The Kooks

This song is done with capo on fret 2, and is in standard tuning, also keep in mind that
chords are placed relative to tempo
Verse
 
 E-----2-------------2-------0-0-------------0-------------------------------|
 B-----3-3---3-----3-------3---3-3---3-----3---3---2-------------------------|
 G---------2---0h2-----0h2-----2---2---0h2-------2------(repeat)-------------|
 D---0-----------------------------------------------------------------------|
 A---------------------------------------------------------------------------|
 E-----------------------------3---------------------------------------------|

Day to day, Where do you want to be? cause now you're trying to pick a fight
With everyone you meet
Pre-chorus
[D] [Asus] [Dadd3] [D/F#2]  
 
 E---------2------------0---------------0-----------------0--------------|
 B---------3------------3---------------3-----------------3--------------|
 G---------2------------2---------------2-----------------2-----(2X)-----|
 D---------0------------0---------------0-----------------0--------------|
 A---------0------------0---------------0-----------------0--------------|
 E---------0------------0---------------3-----------------2--------------|

you s[D]eem [Asus]like a [Dadd3] soldie[D/F#2]r
who's lo[D]st t[Asus]heir [Dadd3] composure[D/F#2],
Chorus
Em G(Bar) D D/F#2 E
 
 E---------0--------------3------------2--------0-------0--------------------|
 B---------0--------------3------------3--------3-------0--------------------|
 G---------0--------------4------------2--------2-------1--------------------|
 D---------2--------------5------------0--------0-------2--------------------|
 A---------2--------------5------------0--------0-------2--------------------|
 E---------0--------------3------------0--------3-------0--------------------|

Em G(Bar) Em
You're wounded and playing a waiting game,
Em G(Bar) D
In no-man's land no-one's to blame,
See the w[D/F#2]orld find an o[D]ld fashioned [D/F#2]girl
And when a[D]ll's been said and [D/F#2]done
E G(Bar)
It's the things that are given, not won
Are the things that you want[D] [D/F#2] [D] [D/F#2]
Day to day
Where do you want to be?
cose now you're trying to pick a fight
With everyone you meet
You seem like a soldier
Who's lost his composure
You're wounded and playing a waiting game
In no-man's land no-one's to blame
See the world
Find an old fashioned girl
And when all's been said and done
It's the things that are given, not won
Are the things that you want
Empty handed, surrounded by a senseless scene
With nothing of significance
Besides a shadow of a dream
You sound like an old joke
You're worn-out, a bit broke
An' askin me time and time again
When the answer's still the same
See the world
Find an old fashioned girl
And when all's been said and done
It's the things that are given, not won
Are the things that you want
You've got a chance to put things right
So how's it going to be?
Lay down your arms now
And put us beyond doubt
So reach out it's not too far away
Don't mess around now, don't delay

Important: The song above is NOT stored on the Chordie server. The original song is hosted at www.guitaretab.com. Chordie works as a search engine and provides on-the-fly formatting. Chordie does not index songs against artists'/composers' will. To remove this song please click here.

Text color:
Chord color:
Chord grids: 
Font size:    
Page size: 

Asus D
Rate #1 of 11 versions

Jango Player

Login - add to songbook

SHARE PAGE  



You need to log in to post comments