Guitar Tabs, Chords and Lyrics
Server problems seems to be fixed. Chordie has been experiencing problems with songs disappearing. These issues now seems to be fixed, but still verifying the fix. If you find anything strange, please email admin@chordie.com.


Pictures in the Mirror  The Living End

- THE LIVING END -
Pictures In The Mirror
Tabbed By Michael Fryar - manumick20@yahoo.com
Standard Tuning.
It was hard to count the number of strums used in parts so stum chords as much as needed.
And yes I do have some weird shaped chords in there + plus a couple of open chrods.
They are the way Chris Cheney plays them in this great song.
~=vibrado
s=slide
x=dead note
Intro:
[G] [C] [G] [C] [G] [D#] [C] [F] [D#] [C]  
 
 e-------------------------------------------------|
 b-------------------------------------------------|
 g-------5-5-5-------5-5-5--------8--5--10-8--5-5--|
 d-5-5-5-5-5-5-5-5-5-5-5-5-5-5-5--x--x--x--x--x-x--|
 a-5-5-5-3-3-3-5-5-5-3-3-3-5-5-5--6--3s-8--6--3-3--|
 e-3-3-3-------3-3-3-------3-3-3-------------------|

Verse:
 
 e----------------------------------------------------------|
 b----------------------------------------------------------|
 g-5-----------------5-----------------5--------------------|
 d-5-----------------5-----------------5--------------------| (x2)
 a-3-strum as needed-x-strum as needed-x-strum as needed----|
 e-------------------5-----------------4--------------------|

[C] [D] [F]  
 
 e---------------2-2-2-2-2-2-2-2-2-2-2-2-1-1-1-1-1-1-1-1-1-1-1-1-1-1-1-1--------------------------|
 b---------------3-3-3-3-3-3-3-3-3-3-3-3-1-1-1-1-1-1-1-1-1-1-1-1-1-1-1-1--------------------------|
 g--5-5-5-5-5-5--2-2-2-2-2-2-2-2-2-2-2-2-2-2-2-2-2-2-2-2-2-2-2-2-2-2-2-2--8-7-5-8-7-5-8-7-5-8-8---|
 d--5-5-5-5-5-5--0-0-0-0-0-0-0-0-0-0-0-0-3-3-3-3-3-3-3-3-3-3-3-3-3-3-3-3--8-7-5-8-7-5-8-7-5-8-8---|
 a--3-3-3-3-3-3-----------------------------------------------------------------------------------|
 e------------------------------------------------------------------------------------------------|

[D] [G] [D] [A] [G] [E]  
 
 e-2-2-2-2-2-2-2-2-2--3-3-3-3-3-3-3-3--2-2-2-2-2-2-2-2-2--------0-------------0----3---0--|
 b-3-3-3-3-3-3-3-3-3--3-3-3-3-3-3-3-3--3-3-3-3-3-3-3-3-3-------2-------------2-----3---0--|
 g-2-2-2-2-2-2-2-2-2--4-4-4-4-4-4-4-4--2-2-2-2-2-2-2-2-2--2---2---2-2-2-2---2---2--4---1--|
 d-0-0-0-0-0-0-0-0-0--5-5-5-5-5-5-5-5--0-0-0-0-0-0-0-0-0--2--2----2-2-2-2--2----2--5---2--|
 a--------------------5-5-5-5-5-5-5-5---------------------0-0-----0-0-0-0-0-----0--5---2--|
 e--------------------3-3-3-3-3-3-3-3----------------------------------------------3---0--|
 e--------5----------5----5-----5-5-5-5-5-5-5-5-5-|
 b-------5--5-5-----5----5-----5--5-5-5-5-5-5-5-5-|
 g--5---5---5-5----5----5-----5---5-5-5-5-5-5-5-5-|
 d--5--5----5-5-4-4----4---3-3----3-3-3-3-3-3-3-3-|
 a--3-3-----3-3-----------------------------------|
 e------------------------------------------------|

Verse (x1)
Fill between verse and chorus:
 
 e-----------------|
 b-----------------|
 g-----------------|
 d-----3-5-3-------|
 a-3-5-------5-3---|
 e-----------------| - something like that anyway.

Chorus
Bridge/Pre Solo:
[C] [Eb] [F] [Eb] [A#] [C]  
 
 e-------------------------|
 b--------4--6--5----------|
 g-5-5-5--x--x--x--3--5-5--|
 d-5-5-5--1--3--1--3--5-5--|(x2)
 a-3-3-3-----------1--3-3--|
 e-------------------------|

Solo:
Over Bridge Over Bridge C
 
 e-------------------------------:-------------------------------:---------:---------------------:-|
 b-------------------------------:-------------------------------:---------:---10~-8-------------:-|
 g----8-10-10--10-10-9-----------:----8-10-10-10-10-8-10-10-11~~-:---------:---------10-8--------:-|
 d-10------------------10-10-9-9-:-10----------------------------:---------:--------------10s----:-|
 a-------------------------------:-------------------------------:-2-1-----:---------------------:-|
 e-------------------------------:-------------------------------:-----3-1-:---------------------:-|

[C] [E] [E]  
 
 e-12~--11-13-11----:-16-15-13-----------13-13-13-:-------0-0--0--:-|
 b-13~-----------13-:----------16-15--13----13-13-:-------9-9--0--:-|
 g-11~--------------:-----------------------------:-------9-9--1--:-|
 d------------------:-----------------------------:-10-10-9-9--2--:-|
 a------------------:-----------------------------:-10-10-7-7--2--:-|
 e------------------:-----------------------------:--8--8------0--:-|

[C] [D] [F]  
 
 e---------------2-2-2-2-2-2-2-2-2-2-2-2-1-1-1-1-1-1-1-1-1-1-1-1-1-1-1-1--------------------------|
 b---------------3-3-3-3-3-3-3-3-3-3-3-3-1-1-1-1-1-1-1-1-1-1-1-1-1-1-1-1--------------------------|
 g--5-5-5-5-5-5--2-2-2-2-2-2-2-2-2-2-2-2-2-2-2-2-2-2-2-2-2-2-2-2-2-2-2-2--8-7-5-8-7-5-8-7-5-8-8---|
 d--5-5-5-5-5-5--0-0-0-0-0-0-0-0-0-0-0-0-3-3-3-3-3-3-3-3-3-3-3-3-3-3-3-3--8-7-5-8-7-5-8-7-5-8-8---|
 a--3-3-3-3-3-3-----------------------------------------------------------------------------------|
 e------------------------------------------------------------------------------------------------|

[D] [G] [D] [A]  
 
 e-2-2-2-2-2-2-2-2-2--3-3-3-3-3-3-3-3--2-2-2-2-2-2-2-2-2--------0-------------0--|
 b-3-3-3-3-3-3-3-3-3--3-3-3-3-3-3-3-3--3-3-3-3-3-3-3-3-3-------2-------------2---|
 g-2-2-2-2-2-2-2-2-2--4-4-4-4-4-4-4-4--2-2-2-2-2-2-2-2-2--2---2---2-2-2-2---2----|
 d-0-0-0-0-0-0-0-0-0--5-5-5-5-5-5-5-5--0-0-0-0-0-0-0-0-0--2--2----2-2-2-2--2-----|
 a--------------------5-5-5-5-5-5-5-5---------------------0-0-----0-0-0-0-0------|
 e--------------------3-3-3-3-3-3-3-3--------------------------------------------|

[D] [A#] [B] [G] [D] [A]  
 
 e-2-2-2-2-2-2-2-2--------------------------------------------------------2-2--------|
 b-3-3-3-3-3-3-3-3--------------------------------------------------------3-3--------|
 g-2-2-2-2-2-2-2-2--3-3-3-3-3-3-3-3--4-4-4-4-4-4-4-4----------------------2-2----2-2-|
 d-0-0-0-0-0-0-0-0--3-3-3-3-3-3-3-3--4-4-4-4-4-4-4-4-5-5-5-5-5-5-5--------0-0----2-2-|
 a------------------1-1-1-1-1-1-1-1--2-2-2-2-2-2-2-2-5-5-5-5-5-5-5---------------0-0-|
 e---------------------------------------------------3-3-3-3-3-3-3-------------------|

Outro: (intro x4)
End On:
e-[C]--|
b---|
g-5-|
d-5-|
a-3-|
e---|
Tabbed By Michael Fryar , manumick20@yahoo.com

Important: The song above is NOT stored on the Chordie server. The original song is hosted at www.guitaretab.com. Chordie works as a search engine and provides on-the-fly formatting. Chordie does not index songs against artists'/composers' will. To remove this song please click here.

Text color:
Chord color:
Chord grids: 
Font size:    
Page size: 

A A# B C D D# E Eb F G
Rate #4 of 9 versions

Login - add to songbook

SHARE PAGE  



You need to log in to post comments