Guitar Tabs, Chords and Lyrics
Server problems seems to be fixed. Chordie has been experiencing problems with songs disappearing. These issues now seems to be fixed, but still verifying the fix. If you find anything strange, please email admin@chordie.com.


Carry Me Home  The Living End

-THE LIVING END-
Carry Me Home
Tabbed by Mick Fryar
manumick20@yahoo.com
Drop low E string to D
p=pull off
h=hammer on
~bend
A.H=art.hammer on
 
 e----------------------------------------------------------------------|
 b----------------------------------------------------------------------|
 g----------------------------------------------------------------------|
 d----0-3p0---0--5h6p5p3-5-3----0-3-----0-3p0-----3p0-----3p0-----0-----|(x3)
 a--3-------3-----------------3-----0h3-------3p0-----3p0-----3p0-------|
 D----------------------------------------------------------------------|

[C] [D]  
 
 e----------------------------------------------------------------------|
 b----------------------------------------------------------------------|
 g----------------------------------------------------------------------|
 d----0-3p0---0-5p0-0--6p0-0--5p0-0--3----3p0-5p0--3s5s3--x--5-7--------|
 a--3-------3--------------------------------------3s5s3--x--3-5--------|
 D----------------------------------------------------------------------|

[C] [D] [C] [D] [C] [D]  
 
 e--------------------------------------------------------------------------|
 b--------------------------------------------------------------------------|
 g--------------------------------------------------------------------------|
 d--3p0-5p0--3s5s3--x--5-7----3p0-5p0--3s5s3--x--5-7----3p0-5p0--3s5s3--5-7-|
 a-----------3s5s3--x--3-5-------------3s5s3--x--3-5----3p0-5p0--3s5s3--3-5-|
 D--------------------------------------------------------------------------|

[C] [D] [C] [D] [C] [D]  
 
 e--------------------------------------------------------------------------|
 b--------------------------------------------------------------------------|
 g--------------------------------------------------------------------------|
 d--3p0-5p0--3s5s3--x--5-7----3p0-5p0--3s5s3--x--5-7----3p0-5p0--3s5s3--5-7-|
 a-----------3s5s3--x--3-5-------------3s5s3--x--3-5----3p0-5p0--3s5s3--3-5-|
 D--------------------------------------------------------------------------|
 e----------------------|
 b----------------------|
 g----------------------|
 d--3p0-5p0--3s5s3-s-5--|
 a-----------3s5s3-s-5--|
 D----------------------|

Verse:
[D] [C] [D]  
 
 e--------------------------------------------------------|
 b--------------------------------------------------------|
 g--7-7-7-7-7-7-7-7-7-7-7-7-7-----------------------------|
 d--7-7-7-7-7-7-7-7-7-7-7-7-7--3p0-5p0-3s5s3--x-5-7-(x4)--|
 a--5-5-5-5-5-5-5-5-5-5-5-5-5----------3s5s3--x-3-5-------|
 D--------------------------------------------------------|

[G] [E] [B]  
 
 e----------------------------------------------------------------------|
 b----------------------------------------------------------------------|
 g------------------------------4-4-4-4-4-4-4-4-4-4-4-4-4-4-4-4---------|
 d------------------------------4-4-4-4-4-4-4-4-4-4-4-4-4-4-4-4-(x2)----|
 a--5-5-5-5-5-5-5-2-2-2-2-2-2-2-2-2-2-2-2-2-2-2-2-2-2-2-2-2-2-2---------|
 D--5-5-5-5-5-5-5-2-2-2-2-2-2-2-----------------------------------------|

[A]  
 
 e------------------------|
 b------------------------|
 g--2-2-2-2-2-2-2-2-2-2-2-|
 d--2-2-2-2-2-2-2-2-2-2-2-|
 a--0-0-0-0-0-0-0-0-0-0-0-|
 D------------------------|

[D] [C] [D]  
 
 e--------------------------------------------------------|
 b--------------------------------------------------------|
 g--7-7-7-7-7-7-7-7-7-7-7-7-7-------------------5-5-------|
 d--7-7-7-7-7-7-7-7-7-7-7-7-7--3p0-5p0-3s5s3--x-5-7-(x2)--|
 a--5-5-5-5-5-5-5-5-5-5-5-5-5----------3s5s3--x-3-5-------|
 D--------------------------------------------------------|

[D]  
 
 e-----------------------------------10----------------------------------------|
 b--------------------------------------13-12-10-12-10-------------------------|
 g--7-7-7-7-7-7-7-7-7-7-7-7-7---10-11-------------------12-11-10----10---------|
 d--7-7-7-7-7-7-7-7-7-7-7-7-7-----------------------------------12----12-10----|
 a--5-5-5-5-5-5-5-5-5-5-5-5-5--------------------------------------------------|
 D-----------------------------------------------------------------------------|

[D] [C] [D]  
 
 e--------------------------------------------------------|
 b--------------------------------------------------------|
 g--7-7-7-7-7-7-7-7-7-7-7-7-7-----------------------------|
 d--7-7-7-7-7-7-7-7-7-7-7-7-7--3p0-5p0-3s5s3--x-5-7-------|
 a--5-5-5-5-5-5-5-5-5-5-5-5-5----------3s5s3--x-3-5-------|
 D--------------------------------------------------------|

D# F D " " " " " " A
 
 e------------------------------------------------------|
 b------------------------------------------------------|
 g-----------------------------------------2-2-2-2-2--2-|
 d-----------------------------------------2-2-2-2-2--2-|
 a--1-1-1--3--0--1-1-1--3--0--1-1-1--3--0--0-0-0-0-0--0-|
 D--1-1-1--3--0--1-1-1--3--0--1-1-1--3--0---------------|

[D] [F] [G] [G#G] [F] [G] [G] [A#] [C] [Db] [C] [A#] [C]  
 
 e--------------------------------------------------------------------------------------|
 b--------------------------------------------------------------------------------------|
 g--------------------------------------------------------------------------------------|
 d--------------------------------------------------------------------------------------|
 a--0-0-3-0-5--0-0-3-0-5--0-0-3-0-5-6-5-3-5-------5-5-8-10-5-5-8-10-5-5-8-10-11-10-8-10-|
 D--0-0-3-0-5--0-0-3-0-5--0-0-3-0-5-6-5-3-5-(x2)--5-5-8-10-5-5-8-10-5-5-8-10-11-10-8-10-|
 e------------------------------------------|
 b------------------------------------------|
 g------------------------------------------|
 d------------------------------------------|
 a--0-0-3-0-5--0-0-3-0-5--0-0-3-0-5-6-5-3-5-|
 D--0-0-3-0-5--0-0-3-0-5--0-0-3-0-5-6-5-3-5-|

[A] [A#] [A] [C#]  
 
 e--------------------------------------------------------------------------|
 b-----------------------------------------------------------------------5~-|
 g--2-2-3-3-2--2-0-2-3-2--------------6-6-6-6-6--8-7-5-7-5-7-5--------------|
 d--2-2-2-2-2--2-0-2-3---2 (A.H)-(x4)-6-6-6-6-6--8-7-5-7-5-7-5--------------|
 a--0-0-1-1-0-------------------------4-4-4-4-4--------------3--7-5-3-0-----|
 D--------------------------------------------------------------7-5-3-0-----|

[D] [C] [D]  
 
 e--------------------------------------------------------|
 b--------------------------------------------------------|
 g--7-7-7-7-7-7-7-7-7-7-7-7-7-----------------------------|
 d--7-7-7-7-7-7-7-7-7-7-7-7-7--3p0-5p0-3s5s3--x-5-7-(x2)--|
 a--5-5-5-5-5-5-5-5-5-5-5-5-5----------3s5s3--x-3-5-------|
 D--------------------------------------------------------|

[D]  
 
 e----------------------------0--0--0--|
 b----------------------------3~-3--3~-|
 g--7-7-7-7-7-7-7-7-7-7-7-7-7----------|
 d--7-7-7-7-7-7-7-7-7-7-7-7-7----------|
 a--5-5-5-5-5-5-5-5-5-5-5-5-5----------|
 D-------------------------------------|

[D]  
 
 e--------------------------------------------------------|
 b--------------------------------------------------------|
 g--7-7-7-7-7-7-7-7-7-7-7-7-7-----------------------------|
 d--7-7-7-7-7-7-7-7-7-7-7-7-7--3p0-5p0-3p0-0--------------|
 a--5-5-5-5-5-5-5-5-5-5-5-5-5-----------------------------|
 D--------------------------------------------------------|

D# F D " " " " " " A
 
 e------------------------------------------------------|
 b------------------------------------------------------|
 g-----------------------------------------2-2-2-2-2--2-|
 d-----------------------------------------2-2-2-2-2--2-|
 a--1-1-1--3--0--1-1-1--3--0--1-1-1--3--0--0-0-0-0-0--0-|
 D--1-1-1--3--0--1-1-1--3--0--1-1-1--3--0---------------|

Solo: Just before the solo all these weird effects are played with the amp and shit
 
 e--------------------------------------------------:--|
 b--6p4----6p4---6-6p4---6-6p4---6-6p4---6-6p4---6--:--|
 g-------5-----5-------5-------5-------5-------5----:--|
 d--------------------------------------------------:--|
 a--------------------------------------------------:--|
 D--------------------------------------------------:--|
 e----------------------------------:--------------9-10-11-12-14s14-:-|
 b--4-5-6-7-8-9-10--8-9-10-7-8-9-10-:-----10-12-13------------14s14-:-|
 g--3-4-5-6-7-8-9---7-8-9--6-7-8-9--:--11---------------------------:-|
 d----------------------------------:-------------------------------:-|
 a----------------------------------:-------------------------------:-|
 D----------------------------------:-------------------------------:-|
 e--4----4----4----4----4----4----4-:----6----6----6----6-6-------------------------:-|
 b----6~---6~---6~---6~---6~---6~---:-8~---8~---8~---8~-----9-8-6-------------------:-|
 g----6~----------------------------:-----------------------------8-7-6-------------:-|
 d----------------------------------:-----------------------------------8-7-6-------:-|
 a----------------------------------:-----------------------------------------8-7-6-:-|
 D----------------------------------:-----------------------------------------------:-|Solo Ends.

[G] [E] [B] [G] [E] [B] [A]  
 
 e----------------------------------|
 b----------------------------------|
 g--------4--------4--2-------------|
 d--------4--------4--2-------------|
 a--5--2--2--5--2--2--0-------------|
 D--5--2-----5--2--------pickslide--|

[D] [F] [G] [G#G] [F] [G] [G] [A#] [C] [Db] [C] [A#] [C]  
 
 e--------------------------------------------------------------------------------------|
 b--------------------------------------------------------------------------------------|
 g--------------------------------------------------------------------------------------|
 d--------------------------------------------------------------------------------------|
 a--0-0-3-0-5--0-0-3-0-5--0-0-3-0-5-6-5-3-5-------5-5-8-10-5-5-8-10-5-5-8-10-11-10-8-10-|
 D--0-0-3-0-5--0-0-3-0-5--0-0-3-0-5-6-5-3-5-(x2)--5-5-8-10-5-5-8-10-5-5-8-10-11-10-8-10-|
 e------------------------------------------|
 b------------------------------------------|
 g------------------------------------------|
 d------------------------------------------|
 a--0-0-3-0-5--0-0-3-0-5--0-0-3-0-5-6-5-3-5-|
 D--0-0-3-0-5--0-0-3-0-5--0-0-3-0-5-6-5-3-5-|
 e----------------------------------------------|
 b----------------------------------------------|
 g--2-2-3-3-2--2-0-3-3-2-------------6-6-6-6-6--|
 d--2-2-2-2-2--2-0-2-3---2(A.H)-(x4)-6-6-6-6-6--|
 a--0-0-1-1-0------------------------4-4-4-4-4--|
 D----------------------------------------------|

[D]  
 
 e---------------------------------------------2--|
 b---------------------------------------------3--|
 g--8-7-5-7-5-7-5----------5-------3-1---1-----2--|
 d--8-7-5-7-5-7-5------------4---------2---2-0-0--|
 a--------------3--7-5-3-0-----3-1----------------|
 D-----------------7-5-3-0------------------------|


Important: The song above is NOT stored on the Chordie server. The original song is hosted at www.guitaretab.com. Chordie works as a search engine and provides on-the-fly formatting. Chordie does not index songs against artists'/composers' will. To remove this song please click here.

Text color:
Chord color:
Chord grids: 
Font size:    
Page size: 

A A# B C C# D Db E F G
Rate #1 of 5 versions

Jango Player

Login - add to songbook

SHARE PAGE  



You need to log in to post comments