Guitar Tabs, Chords and Lyrics
Major upgrade!! After one year development the new version of Chordie is now online! Please give feedback.


Killing the Right  The Living End

-THE LIVING END-
Killing The Right
Transcription By Mick Fryar
manumick20@yahoo.com
Sorry if this transcription is difficult to read. I tried my best. I got all of this song here
but Im a little worried with the setting out of "Intro B" but it`s all in there okay.
Hope this helps you all. Cheers, Mick
*p*=light pull-off, almost un-noticed
p=pull-off
h=hammer-on
x=dead note (strum but dont play!)
s=slide
~=vibrado/bend
IntroA:
 
 e--2--------2--------2--------3--------2---------------|
 b--0-5p4p0--0-5p4p0--0-5p4p0--x-6p5p0--0-5p4p0---------|
 g--3--------3--------3--------4--------3-------2-------|
 d------------------------------------------------------|
 a------------------------------------------------------|
 e------------------------------------------------------|

IntroB:
[Em]  
 
 e-------7-7-7-------7-7-7-------7-7-7-7-----7-7-7-------------------------------------------------------|
 b-------8-8-8-------8-8-8-------8-8-8-8-----8-8-8-------------------------------------------------------|
 g-------9-9-9-------9-9-9-------9-9-9-9-----9-9-9-------------------------------------------------------|
 d-------9-9-9-------9-9-9-(x8)--9-9-9-9-----9-9-9-(do that as needed, hey I aint countin,too confusing!-|
 a-------7-7-7-------7-7-7-------7-7-7-7-----7-7-7-------------------------------------------------------|
 e--0-0---------0-0----------------------0-0-------------------------------------------------------------|

tempo is changed and yeah, ARGH tricky at first!
[D] [E] [Em]  
 
 e---------:------7-7-7-------7-7-7---------------------------------|
 b---------:------8-8-8-------8-8-8---------------------------------|
 g--7-7-9--:------9-9-9-------9-9-9---------------------------------|
 d--7-7-9--:------9-9-9-------9-9-9-(play this section as needed)---|
 a--5-5-7--:------7-7-7-------7-7-7---------------------------------|
 e---------:-0-0---------0-0----------------------------------------|

[Em] [D] [E] [D] [E]  
 
 e--7----------------------------|
 b--8----------------------------|
 g--9---7-7-7-9------7-7-7-9-----|
 d--9---7-7-7-9------7-7-7-9-----|
 a--7---5-5-5-7------5-5-5-7-----|
 e-------------------------------|

Verse:
Em Em+double sharp D C (p.s, I can`t remember the name of that Em d# chord!)
 
 e--7-7-7-7-7--7--7-7--------------------------|
 b--8-8-8-8-10-10-8-8--------------------------|
 g--9-9-9-9-7--7--9-9--------7-7--5---7-7--5---|
 d--9-9-9-9-9--9--9-9--------7-7--5---7-7--5---|(x2)
 a--7-7-7-7-7--7--7-7--------5-5--3---5-5--3---|
 e---------------------------------------------|

[Cm] [D]  
 
 e----3--------------------------|
 b------4---4-----------7--------|
 g------------5-------------7----|
 d--------5-----5---------7------|(x3)
 a-3---------------3--5-------5--|
 e-------------------------------|

[D] [B]  
 
 e-------------------------------|
 b-------------------------------|
 g--7-7-7-6-4-2-4-4---4-4-4------|
 d--7-7---------4-4---4-4-4------|
 a--5-5---------2-2---2-2-2------|
 e-------------------------------|

IntroB *play as many times at needed,not as many a previously played before though.*
Chorus:
[C] [G] [B]  
 
 e--0-0-0-0-0-0--3-3-3-3-3-3-------------------------| Fill:e----------------------------|
 b--5-5-5-5-5-5--3-3-3-3-3-3-------------------------| b----------0---2h3p2---------|
 g--5-5-5-5-5-5--4-4-4-4-4-4-------------------------| g--5-3-2-0---0-------2---4-4-|
 d--2-2-2-2-2-5--5-5-5-5-5-5-------------5-6~--(x2)--| d----------------------3-4-4-|
 a--3-3-3-3-3-3--5-5-5-5-5-5---5-7-8~--8-------------| a------------------------2-2-|
 e---------------3-3-3-3-3-3-------------------------| e----------------------------|

Verse
Chorus
Solo:
 
 e------------------------------------------------------------------------------------------12-----12--|
 b---------------------3-1-0-1--------------------------3-1-0-1--1-3-4s-10-13-12---10-12-13----12~-----|
 g--2-5(A.H)-4-2-4~--2---------------2-5(A.H)-4-2-4~--2--------------------------9---------------------|
 d-----------------------------------------------------------------------------------------------------|
 a-----------------------------------------------------------------------------------------------------|
 e-----------------------------------------------------------------------------------------------------|
 e--10-8-7-8~-8s10----------------------------------------------------8-11-10--------------------11-10-11-|
 b-----------------9-------------9-------------------------------7-10---------8------------8--------------|
 g-------------------10-7---7-10------8-7-5-7~----10-8-7-8~-8-10-----------------5-7-8-7-8----10----------|
 d------------------------9---------5----------10---------------------------------------------------------|
 a--------------------------------------------------------------------------------------------------------|
 e--------------------------------------------------------------------------------------------------------|
 e--------------------------------------------------------|
 b-----12p9----------9-12-15p12---------------------------|
 g--10------10----10------------13----------------13*p*12-|
 d-------------12------------------15-12----12-15---------|
 a---------------------------------------14---------------|
 e--------------------------------------------------------|
 e---------------------------------------------------------------------------|
 b-------5-7-8-----------------------5-7-8-----------------------5-7-7-11----|
 g--3-3--x-x-x-4-4-4-4-4-4-4-4--3-3--x-x-x-4-4-4-4-4-4-4-4--3-3--x-x-x-x-----|
 d--x-x--2-4-5-4-4-4-4-4-4-4-4--x-x--2-4-5-4-4-4-4-4-4-4-4--x-x--2-4-5-8-7-5-|
 a--3-3--------2-2-2-2-2-2-2-2--3-3--------2-2-2-2-2-2-2-2--3-3--------------|
 e---------------------------------------------------------------------------|

Last Verse:
[F] [E] [D]  
 
 e------------------------------------------------------------------------|
 b------------------------------------------------------------------------|
 g-10-10-10-10-10-10-10-10-10-10--9-9-9-9-9-9-9-9-9-9-7-7-7-7-7-7-7-7-7-7-|
 d-10-10-10-10-10-10-10-10-10-10--9-9-9-9-9-9-9-9-9-9-7-7-7-7-7-7-7-7-7-7-|
 a-8--8--8--8--8--8--8--8--8--8---7-7-7-7-7-7-7-7-7-7-5-5-5-5-5-5-5-5-5-5-|
 e------------------------------------------------------------------------|

[F] [E] [F] [G] [G#]  
 
 e---------------------------------------------------------------------------|
 b---------------------------------------------------------------------------|
 g-10-10-10-10-10-10-10-10-10-9-10-12--13-13-13-13-13-13-13-13-13------------|
 d-10-10-10-10-10-10-10-10-10-9-10-12--13-13-13-13-13-13-13-13-13------------|
 a-8--8--8--8--8--8--8--8--8--7-8--10--11-11-11-11-11-11-11-11-11------------|
 e---------------------------------------------------------------------------|

[C#m] [C]  
 
 e-----4-4---------4------0---------------|
 b----5------5-----------5--5-------5-----|
 g---6---------6--------5-------5---------|
 d--6------6-----6-----5------5-----------|
 a-4------------------3-----------3---3---|
 e----------------------------------------|

[D] [E] [D]  
 
 e-----------------------------------------------|
 b-----------------------------------------------|
 g-7---7----7----9-9-9-9-9-9-9-9-7-7-7-7-7-7-7-7-|
 d-7---7----5----9-9-9-9-9-9-9-9-7-7-7-7-7-7-7-7-|
 a-5---5----5----7-7-7-7-7-7-7-7-5-5-5-5-5-5-5-5-|
 e-----------------------------------------------|

/palm mute\
then play the other chorus as few times with lead fills in which I think are in D pentaonics scales(or around that area)
,followed by: Outro:
[C] [G] [D] [C] [D] [E] [B] [C] [D#] [E]  
 
 e------------------------------------------------------------------------|
 b---------------------------------------------------------------------9s-|
 g--5---------------7-7-5---7-7--7-7--7-7--7---7------9-9--------8-8-8-9s-|
 d--5------5--------7-7-5---7-7--7-7--7-7--7---7-(x4)-9-9-9-9-10-8-8-8-9s-|
 a--3(x4)--5(x4)----5-5-3---5-5--5-5--5-5--5---5------7-7-9-9-10-6-6-6-7s-|
 e---------3----------------------------------------------7-7--8----------|.


Important: The song above is NOT stored on the Chordie server. The original song is hosted at www.guitaretab.com. Chordie works as a search engine and provides on-the-fly formatting. Chordie does not index songs against artists'/composers' will. To remove this song please click here.

Text color:
Chord color:
Chord grids: 
Font size:    
Page size: 

B C C#m Cm D D# E Em F G G#
Rate #2 of 4 versions

Login - add to songbook

SHARE PAGE  



You need to log in to post comments