Guitar Tabs, Chords and Lyrics
Server problems seems to be fixed. Chordie has been experiencing problems with songs disappearing. These issues now seems to be fixed, but still verifying the fix. If you find anything strange, please email admin@chordie.com.


Reborn  The Living End

- The Living End -
Reborn
Transcribed By Isabele Wallace
isabele_wallace@hotmail.com
s = slide
x = dead note
pm = palm mute
~ = vibrado
p = pull off
h = hammer on
^^ = full bend
^ = bend
v = bring bend back down
Intro:
[F#] [F#] [G] [E] [F#]  
 
 e------------------------:---------------------------|
 B------------------------:---------------------------|
 G------------------------:---------------------------|
 D--4-4-s--4--5--2--(x3)--:--4-4--x-x-x-4-4--x-x-x----|
 A--4-4-s--4--5--2--------:--4-4--x-x-x-4-4--x-x-x----|
 E--2-2-s--2--3--0--------:--2-2--x-x-x-2-2--x-x-x----|

Verse:
[B] [G]  
 
 e-----------------------------------------------|
 B-----------------------------------------------|
 G--4----4-----4-----4---4----4-----4-----4------|
 D--4--4---4-4---4-4---4-0-----------------------|
 A--2--2---2-2---2-2---2-2--2---2-2---2-2---2----|
 E-----------------------3--3---3-3---3-3---3----|

pm............... .................
[Asus] [B]  
 
 e-----------------------------------------------|
 B-----------------------------------------------|
 G--4----4-----4-----4---4----4-----4-----4------| Repeat
 D--2--2---2-2---2-2---2-4--4---4-4---4-4---4----| Progression
 A--0--0---0-0---0-0---0-2--2---2-2---2-2---2----|
 E-----------------------------------------------|

pm............... .................
[B] [G]  
 
 e-----------------------------------------------|
 B-----------------------------------------------|
 G--4----4-----4-----4---4----4-----4-----4------|
 D--4--4---4-4---4-4---4-0-----------------------|
 A--2--2---2-2---2-2---2-2--2---2-2---2-2---2----|
 E-----------------------3--3---3-3---3-3---3----|

pm............... .................
[Asus] [B]  
 
 e-----------------------------------------|
 B-----------------------------------------|
 G--4----4-----4-----4---4--4-4-4-4-4-4----|
 D--2--2---2-2---2-2---2-4--4-4-4-4-4-4----|
 A--0--0---0-0---0-0---0-2--2-2-2-2-2-2----|
 E-----------------------------------------|

pm...............
Pre Chorus:
[G]  
 
 e--------------------------------------------|
 B--------------------------------------------|
 G--4--4-4-4-4--4-4-4-4--4-4-4-4-4-4-4-4-4----|
 D--5--5-5-5-5--5-5-5-5--5-5-5-5-5-5-5-5-5----|
 A--5--5-5-5-5--5-5-5-5--5-5-5-5-5-5-5-5-5----|
 E--3--3-3-3-3--3-3-3-3--3-3-3-3-3-3-3-3-3----|

[E]  
 
 e--------------------------------------------|
 B--------------------------------------------|
 G--7--7-7-7-7--7-7-7-7--7-7-7-7-7-7-7-7-7----| Repeat
 D--6--6-6-6-6--6-6-6-6--6-6-6-6-6-6-6-6-6----| Progression
 A--7--7-7-7-7--7-7-7-7--7-7-7-7-7-7-7-7-7----|
 E--0--0-0-0-0--0-0-0-0--0-0-0-0-0-0-0-0-0----|

[G] [F#] [G] [E] [F#]  
 
 e-------------------------------------------------------------------|
 B-------------------------------------------------------------------|
 G--4--4--4--4--4--4--4--4-------------------------------------------|
 D--5--5--5--5--5--5--5--5--4-4-s--4--5--2--4-4-x-x-x-x-x-x-x-x-x----|
 A--5--5--5--5--5--5--5--5--4-4-s--4--5--2--4-4-x-x-x-x-x-x-x-x-x----|
 E--3--3--3--3--3--3--3--3--2-2-s--2--3--0--2-2-x-x-x-x-x-x-x-x-x----|

Chorus:
[B] [G] [A] [B]  
 
 e--2--2--2--2--3--3--3--3--0--0--0--0--2--2--2--2----|
 B--3--3--3--3--3--3--3--3--2--2--2--2--3--3--3--3----|
 G--4--4--4--4--0--0--0--0--2--2--2--2--4--4--4--4----|
 D--4--4--4--4--0--0--0--0--2--2--2--2--4--4--4--4----| x2
 A--2--2--2--2--2--2--2--2--0--0--0--0--2--2--2--2----|
 E--------------3--3--3--3----------------------------|

Post Chorus:
Lead
Guitar One
[B] [A] [B]  
 
 e------------------------------7-7--7-5--7--7---------------|
 B----------8-7~----------8-7~--7-7--7-5--7----10p7----------|
 G------6-7-----------6-7-------7-7--7-6--7---------9h7------|
 D--s9------------s9------------9-9--9-7--9-------------9----|
 A----------------------------------------9------------------|
 E----------------------------------------7------------------|

Guitar Two
[B] [A] [B]  
 
 e------------------------7-5~--7-7--7-5--7------------------|
 B--------------------5-7-------7-7--7-5--7------------------|
 G----------------s7------------7-7--7-6--7--4p2-------------|
 D------------------------------9-9--9-7--9------4-2p0-------|
 A----------------------------------------9------------2~----|
 E----------------------------------------7------------------|

Rhythm
[B] [G] [A] [B]  
 
 e--2--2--2--2--3--3--3--3--0--0--0--0--2--2--2--2----|
 B--3--3--3--3--3--3--3--3--2--2--2--2--3--3--3--3----|
 G--4--4--4--4--0--0--0--0--2--2--2--2--4--4--4--4----|
 D--4--4--4--4--0--0--0--0--2--2--2--2--4--4--4--4----|
 A--2--2--2--2--2--2--2--2--0--0--0--0--2--2--2--2----|
 E--------------3--3--3--3----------------------------|

Verse:
[B] [G]  
 
 e-----------------------------------------------|
 B-----------------------------------------------|
 G--4----4-----4-----4---4----4-----4-----4------|
 D--4--4---4-4---4-4---4-0-----------------------|
 A--2--2---2-2---2-2---2-2--2---2-2---2-2---2----|
 E-----------------------3--3---3-3---3-3---3----|

pm............... .................
[Asus] [B]  
 
 e-----------------------------------------------|
 B-----------------------------------------------|
 G--4----4-----4-----4---4----4-----4-----4------| Repeat
 D--2--2---2-2---2-2---2-4--4---4-4---4-4---4----| Progression
 A--0--0---0-0---0-0---0-2--2---2-2---2-2---2----|
 E-----------------------------------------------|

pm............... .................
Lead
 
 e---------------------------------------------|
 B---------------------------------------------|
 G--9^^v-7------9^^v-7------9^^v-7-------------|
 D---------9~----------9~----------9~--7-9~----|
 A---------------------------------------------|
 E---------------------------------------------|

Rhythm
[B] [G]  
 
 e-----------------------------------------------|
 B-----------------------------------------------|
 G--4----4-----4-----4---4----4-----4-----4------|
 D--4--4---4-4---4-4---4-0-----------------------|
 A--2--2---2-2---2-2---2-2--2---2-2---2-2---2----|
 E-----------------------3--3---3-3---3-3---3----|

pm............... .................
[Asus] [B]  
 
 e----------------------------------------------|
 B----------------------------------------------|
 G--4----4-----4-----4---4----4--4-4-4-4-4-4----|
 D--2--2---2-2---2-2---2-4--4----4-4-4-4-4-4----|
 A--0--0---0-0---0-0---0-2--2----2-2-2-2-2-2----|
 E----------------------------------------------|

pm............... pm.
Pre Chorus
Chorus
Post Chorus x2
Bridge:
[E] [F#] [E] [G] [E] [A] [B] [C] [B] [G] [F#]  
 
 e-------------------------------------------------------|
 B-------------------------------------------------------|
 G-------------------------------------------------------|
 D-----2--2~-------2--2~-------2--2~--7--9--10-9--5-4----| x3
 A--2---------------------------------x--x---x-x--x-x----|
 E--0---------0-2---------0-3---------5--7---8-7--3-2----|

[E] [F#] [E] [G] [E] [A]  
 
 e---------------------------------------------------------------|
 B---------------------------------------------------------------|
 G------------------------------------2-2-2-2-2-2-2-2-2-2-2-2----|
 D-----2--2~-------2--2~-------2--2~--2-2-2-2-2-2-2-2-2-2-2-2----|
 A--2---------------------------------0-0-0-0-0-0-0-0-0-0-0-0----|
 E--0---------0-2---------0-3------------------------------------|

Pre Chorus:
[G]  
 
 e--------------------------------------------|
 B--------------------------------------------|
 G--4--4-4-4-4--4-4-4-4--4-4-4-4-4-4-4-4-4----|
 D--5--5-5-5-5--5-5-5-5--5-5-5-5-5-5-5-5-5----|
 A--5--5-5-5-5--5-5-5-5--5-5-5-5-5-5-5-5-5----|
 E--3--3-3-3-3--3-3-3-3--3-3-3-3-3-3-3-3-3----|

[E]  
 
 e--------------------------------------------|
 B--------------------------------------------|
 G--7--7-7-7-7--7-7-7-7--7-7-7-7-7-7-7-7-7----| Repeat
 D--6--6-6-6-6--6-6-6-6--6-6-6-6-6-6-6-6-6----| Progression
 A--7--7-7-7-7--7-7-7-7--7-7-7-7-7-7-7-7-7----|
 E--0--0-0-0-0--0-0-0-0--0-0-0-0-0-0-0-0-0----|

[F#] [G] [E] [F#] [G] [E] [F#]  
 
 e--14~--12~--10~--9~------------------------------------------------|
 B---x----x----x---x-------------------------------------------------|
 G--11----9----7---6-------------------------------------------------|
 D--12---11----9---7---4-4-s--4--5--2--4-4-s--4--5--2--4-4----4-4----|
 A---------------------4-4-s--4--5--2--4-4-s--4--5--2--4-4----4-4----|
 E---------------------2-2-s--2--3--0--2-2-s--2--3--0--2-2----2-2----|

Chorus:
[B] [G] [A] [B]  
 
 e--2--2--2--2--3--3--3--3--0--0--0--0--2--2--2--2----|
 B--3--3--3--3--3--3--3--3--2--2--2--2--3--3--3--3----|
 G--4--4--4--4--0--0--0--0--2--2--2--2--4--4--4--4----|
 D--4--4--4--4--0--0--0--0--2--2--2--2--4--4--4--4----| x2
 A--2--2--2--2--2--2--2--2--0--0--0--0--2--2--2--2----|
 E--------------3--3--3--3----------------------------|

Post Chorus:
Lead
Guitar One
[B] [A] [B]  
 
 e------------------------------7-7--7-5--7--7---------------|
 B----------8-7~----------8-7~--7-7--7-5--7----10p7----------|
 G------6-7-----------6-7-------7-7--7-6--7---------9h7------|
 D--s9------------s9------------9-9--9-7--9-------------9----|
 A----------------------------------------9------------------|
 E----------------------------------------7------------------|

[B] [A] [B]  
 
 e------------------------------7-7--7-5--7-7-7-7-7-7-7-7-7-7-7-7----|
 B----------8-7~----------8-7~--7-7--7-5--7-7-7-7-7-7-7-7-7-7-7-7----|
 G------6-7-----------6-7-------7-7--7-6--7-7-7-7-7-7-7-7-7-7-7-7----|
 D--s9------------s9------------9-9--9-7--9-9-9-9-9-9-9-9-9-9-9-9----|
 A----------------------------------------9-9-9-9-9-9-9-9-9-9-9-9----|
 E----------------------------------------7-7-7-7-7-7-7-7-7-7-7-7----|

Guitar Two
[B] [A] [B]  
 
 e------------------------7-5~--7-7--7-5--7------------------|
 B--------------------5-7-------7-7--7-5--7------------------|
 G----------------s7------------7-7--7-6--7--4-2-------------|
 D------------------------------9-9--9-7--9------4-2p0-------|
 A----------------------------------------9------------2~----|
 E----------------------------------------7------------------|

[B] [A]  
 
 e------------------------7-5~--7-7--7-5----|
 B--------------------5-7-------7-7--7-5----|
 G----------------s7------------7-7--7-6----|
 D------------------------------9-9--9-7----|
 A------------------------------------------|
 E------------------------------------------|

Rhythm
[B] [G] [A] [B]  
 
 e--2--2--2--2--3--3--3--3--0--0--0--0--2--2--2--2----|
 B--3--3--3--3--3--3--3--3--2--2--2--2--3--3--3--3----|
 G--4--4--4--4--0--0--0--0--2--2--2--2--4--4--4--4----|
 D--4--4--4--4--0--0--0--0--2--2--2--2--4--4--4--4----|
 A--2--2--2--2--2--2--2--2--0--0--0--0--2--2--2--2----|
 E--------------3--3--3--3----------------------------|
 e--2--2--2--2--3--3--3--3--0--0--0--0--2--2--2--2----|
 B--3--3--3--3--3--3--3--3--2--2--2--2--3--3--3--3----|
 G--4--4--4--4--0--0--0--0--2--2--2--2--4--4--4--4----|
 D--4--4--4--4--0--0--0--0--2--2--2--2--4--4--4--4----|
 A--2--2--2--2--2--2--2--2--0--0--0--0--2--2--2--2----|
 E--------------3--3--3--3----------------------------|

Outro:
[B] [F#] [G] [A] [B] [C]  
 
 e-----------------------|
 B-----------------------|
 G-----------------------|
 D--9--4--5--7--9--10----|
 A--x--x--x--x--x---x----|
 E--7--2--3--5--7---8----|


Important: The song above is NOT stored on the Chordie server. The original song is hosted at www.guitaretab.com. Chordie works as a search engine and provides on-the-fly formatting. Chordie does not index songs against artists'/composers' will. To remove this song please click here.

Text color:
Chord color:
Chord grids: 
Font size:    
Page size: 

A Asus B C E F# G
Rate #1 of 2 versions

Jango Player

Login - add to songbook

SHARE PAGE  



You need to log in to post comments