Guitar Tabs, Chords and Lyrics
Major upgrade!! After one year development the new version of Chordie is now online! Please give feedback.


State of Emergency  The Living End

Okay...... Mucho-mum has just freshind up this tab by adding Order Of The Day!!! YAYY!
for that mucho-mum...... And thank u so much Jason.Z U guys are awsome tabbers!
STATE OF EMERGENCY-2006
1.'Till The End
2.Long Live The Weekend
3.No Way Out
4.We Want More
5.Wake Up
6.What's On Your Radio?
7.Nothing Last forever
8.Order Of The Day
9.Reborn
10.One Step Behind
11.Nowhere Town
12.State Of Emergency
13.Black Cat
14.Into The Red
________________
/ = slide up
\ = slide down
h = hammer on
p = pull off
b = half bend
^ =bend one fret
^^ = bend 2 frets
v = release bend
pm = palm mute
x = dead note
_________________
 
 ---Till The End---

Intro:
 
 e----------------------------------------------------------------------------|
 b--------------------4-----4-----4---4-----4-----4---4-----4-----4---4-4-4---|
 g--------------------4-----4-----4---4-----4-----4---4-----4-----4---4-4-4---|
 d--------------------4-4-4-4-4-4-4-4-4-4-4-4-4-4-4-4-4-4-4-4-4-4-4-4-4-4-4---|
 a--7~----------------2-2-2-2-2-2-2-2-2-2-2-2-2-2-2-2-2-2-2-2-2-2-2-2-2-2-2---|
 e----------------------------------------------------------------------------|
 e----------------------------------------------------------------------------|
 b----------------------------------------------------------------------------|
 g--9---11--12---14~------9---11--12----9----11----12-12-12-12-12-12-12-12----|
 d--x---x---x----x--------x---x---x----10-10-10-10-10-10-10-10-10-10-10-10----|
 a--7---9---10---12~------7---9---10---10-10-10-10-10-10-10-10-10-10-10-10----|
 e--0-0-0-0-0--0-0----0-0-0-0-0-0-0-----8--8--8--8--8--8--8--8--8--8--8--8----|
 e----------------------------------------------------------------------------|
 b--5---7---8---10~-----5---7---8---------------------------------------------|
 g--x---x---x---x-------x---x---x-----9----11----12-12-12-12-12-12-12-12-12---|
 d--2---4---5---7~------2---4---5----10-10-10-10-10-10-10-10-10-10-10-10-10---|
 a--0-0-0-0-0-0-0---0-0-0-0-0-0-0----10-10-10-10-10-10-10-10-10-10-10-10-10---|
 e------------------------------------8--8--8--8--8--8--8--8--8--8--8--8--8---|
 e-----------------------------------------------------------------|
 b--4-----4-----4---4-----4-----4---4-----4-----4---4-----4-----4--|
 g--4-----4-----4---4-----4-----4---4-----4-----4---4-----4-----4--|
 d--4-4-4-4-4-4-4-4-4-4-4-4-4-4-4-4-4-4-4-4-4-4-4-4-4-4-4-4-4-4-4--|
 a--2-2-2-2-2-2-2-2-2-2-2-2-2-2-2-2-2-2-2-2-2-2-2-2-2-2-2-2-2-2-2--|
 e-----------------------------------------------------------------|
 e-----------------------------|
 b-----------------------------|
 g--9-----9-----9-----9--------|
 d--9--9--9--9--9--9--9--9\----|
 a--7--9--7--9--7--9--7--9\----|
 e--0--7--0--7--0--7--0--7\----|
 e------------------------------------------------------------------|
 b------------------------------------------------------------------|
 g------------------------------------------------------------------|
 d------------------------------------------------------------------|
 a----7---7---7---7---7---7---7---7---7---7---7---7---7---7---7---7-|
 e--0---0---0---0---0---0---0---0---0---0---0---0---0---0---0---0---|

pm...........................................
Verse
 
 e-------------------------------------------------------------------|
 b-------------------------------------------------------------------|
 g----4---4---4---4---4---4---4---4----------------------------------|
 d--2-------2-------2-------2----------4---4---4---4---4---4---4---4-|
 a------2-------2-------2-------2----2-------2-------2-------2-------|
 e---------------------------------------2-------2-------2-------2---|

pm..............................................................
 
 e-------------------------------------------------------------------|
 b-------------------------------------------------------------------|
 g-------------------------------------------------------------------|
 d----2---2---2---2---2---2---2---2----4---4---4---4-4-4-4-4-4-4--1--| All
 a--0-------0-------0-------0--------2-------2-------2-2-3-3-2-2-----| x2
 e------0-------0-------0-------0--------2-------2-------------------|

pm..............................................
 
 e-------------------------------------------------------------------|
 b-------------------------------------------------------------------|
 g-------------------------------------------------------------------|
 d----5---5---5---5---5---5---5---7----9---9---9---9---9---9---9---9-|
 a--3-------3-------3-------3---5----7-------7-------7-------7-------|
 e------3-------3-------3----------------7-------7-------7-------7---|

pm..................... ...............................
 
 e----------------------------------|
 b----------------------------------|
 g----------------------------------|
 d----5---5---5---5---5---5---5---5-|
 a--3-------3-------3-------3-------|
 e------3-------3-------3-------3---|

pm.............................
Pre Chorus:
 
 e----------------------------------------------------------------------------|
 b--1----4----5----7----4-----4-----4---4-----4-----4---4-----4-----4---4-4---|
 g--2----4----5----7----4-----4-----4---4-----4-----4---4-----4-----4---4-4---|
 d--2----4----5----7----4-4-4-4-4-4-4-4-4-4-4-4-4-4-4-4-4-4-4-4-4-4-4-4-4-4---|
 a--0----0----0----0----2-2-2-2-2-2-2-2-3-3-3-3-3-3-3-3-2-2-2-2-2-2-2-2-2-2---|
 e----------------------------------------------------------------------------|

Chorus:
 
 e----------------------------------------------------------------------------|
 b----------------------------------------------------------------------------|
 g--9---11--12---14~------9---11--12----9----11----12-12-12-12-12-12-12-12----|
 d--x---x---x----x--------x---x---x----10-10-10-10-10-10-10-10-10-10-10-10----|
 a--7---9---10---12~------7---9---10---10-10-10-10-10-10-10-10-10-10-10-10----|
 e--0-0-0-0-0-0--0----0-0-0-0-0-0-0-----8--8--8--8--8--8--8--8--8--8--8--8----|
 e----------------------------------------------------------------------------|
 b--5---7---8---10~-----5---7---8---------------------------------------------|
 g--x---x---x---x-------x---x---x-----9----11----12-12-12-12-12-12-12-12-12---|
 d--2---4---5---7~------2---4---5----10-10-10-10-10-10-10-10-10-10-10-10-10---|
 a--0-0-0-0-0-0-0---0-0-0-0-0-0-0----10-10-10-10-10-10-10-10-10-10-10-10-10---|
 e------------------------------------8--8--8--8--8--8--8--8--8--8--8--8--8---|

Post Chorus:
 
 e-----------------------------------------------------------------|
 b--4-----4-----4---4-----4-----4---4-----4-----4---4-----4-----4--|
 g--4-----4-----4---4-----4-----4---4-----4-----4---4-----4-----4--|
 d--4-4-4-4-4-4-4-4-4-4-4-4-4-4-4-4-4-4-4-4-4-4-4-4-4-4-4-4-4-4-4--|
 a--2-2-2-2-2-2-2-2-2-2-2-2-2-2-2-2-2-2-2-2-2-2-2-2-2-2-2-2-2-2-2--|
 e-----------------------------------------------------------------|
 e-----------------------------|
 b-----------------------------|
 g--9-----9-----9-----9--------|
 d--9--9--9--9--9--9--9--9\----|
 a--7--9--7--9--7--9--7--9\----|
 e--0--7--0--7--0--7--0--7\----|
 e------------------------------------------------------------------|
 b------------------------------------------------------------------|
 g------------------------------------------------------------------|
 d------------------------------------------------------------------|
 a----7---7---7---7---7---7---7---7---7---7---7---7---7---7---7---7-|
 e--0---0---0---0---0---0---0---0---0---0---0---0---0---0---0---0---|

pm...........................................
Verse
Pre Chorus
Chorus
Pre-Solo:
 
 e-------------------------------------|
 b-------------------------------------|
 g--9-9-9-9-9-9-9-9-9-9-9-9-9-9b-9b-9b-|
 d--x-x-x-x-x-x-x-x-x-x-x-x-x-x--x--x--|
 a--7-7-7-7-7-7-7-7-7-7-7-7-7-7--7--7--|
 e-------------------------------------|

Solo: There's at least 2 guitars in this lol probably more.
This is the best I can come up with
Guitar 1
 
 e----------------------------------------------------------|
 b----------------------------------------------------------|
 g----4/7-10-9~---4/7-10-9~----9~--8--11-9------------------|
 d----x---x--x----x---x--x-----x---x--x--x--9^v-7-9p7-------| x2
 a----2/5-8--7~---2/5-8--7~----7~--6--9--7------------10-9--|
 e--0-------------------------------------------------------|

Guitar 2
 
 e------------------------------------------7^v-5-7p5-------|
 b----------------------------------------------------8-7---|
 g--4---2-5-4~-----2-5-4~------4~--2-/5-4~------------------|
 d----4----------4------------------------------------------| x2
 a----------------------------------------------------------|
 e----------------------------------------------------------|

Guitar 1
 
 e------------------------------------|
 b------------------------------------|
 g------------------------------------|
 d----0-5-8-7~--x-x-x-10-9~--x-12-10--| x2
 a--0---------------------------------|
 e------------------------------------|

Guitar 2
 
 e------0-3\2~--x-x-x-5\3~--x-7\5~----|
 b--x-0---5\3~--x-x-x-7\5---x-8\7~----|
 g------------------------------------|
 d------------------------------------| x2
 a------------------------------------|
 e------------------------------------|

Guitar 1
 
 e----------------------------------------------------------|
 b----------------------------------------------------------|
 g----4/7-10-9~---4/7-10-9~----9~--8--11-9------------------|
 d----x---x--x----x---x--x-----x---x--x--x--9^v-7-9p7-------|
 a----2/5-8--7~---2/5-8--7~----7~--6--9--7------------10-9--|
 e--0-------------------------------------------------------|

Guitar 2
 
 e------------------------------------------7^v-5-7p5-------|
 b----------------------------------------------------8-7---|
 g--4---2-5-4~-----2-5-4~------4~--2-/5-4~------------------|
 d----4----------4------------------------------------------|
 a----------------------------------------------------------|
 e----------------------------------------------------------|

Guitar 1
 
 e--------------------------------|----------------------------0--|
 b--------------------------------|----------------------------0--|
 g--4-----5-4~--4-----5-4~--------|--4-----5-4~----------------0--|
 d--x-4-5-x-x---x-4-5-x-x---(x3)--|--x-4-5-x-x---9--7--5~--4~--2--|
 a--2-x-x-3-2~--2-x-x-3-2~--------|--2-x-x-3-2~--x--x--x---x---2--|
 e----2-3---------2-3-------------|----2-3-------7--5--3~--2~--0--|

Guitar 2
 
 e--------------------------------|-------------------------------|
 b--4-----5-4~--4-----5-4~--------|--4-----5-4~--4--5--7^--7~--5--|
 g----2-4---------2-4-------------|----2-4------------------------|
 d--------------------------(x3)--|-------------------------------|
 a--------------------------------|-------------------------------|
 e--------------------------------|-------------------------------|

Post-Solo: Just bass at the start,
then guitar and drums kick in
 
 e--------------------------------------------------------------|
 b--------------------------------------------------------------|
 g--------------------------------------------------------------|
 d--2-------2-------2-------2-------2-------2-------------------|
 a------2-------2-------2-------2-------2-------2---------------|
 e----0---0---0---0---0---0---0---0---0---0---0---0--pickslide--|

pm.............................................
Chorus
Outro:
 
 e-----------------------------------------------------------------|
 b--4-----4-----4---4-----4-----4---4-----4-----4---4-----4-----4--|
 g--4-----4-----4---4-----4-----4---4-----4-----4---4-----4-----4--|
 d--4-4-4-4-4-4-4-4-4-4-4-4-4-4-4-4-4-4-4-4-4-4-4-4-4-4-4-4-4-4-4--|
 a--2-2-2-2-2-2-2-2-2-2-2-2-2-2-2-2-2-2-2-2-2-2-2-2-2-2-2-2-2-2-2--|
 e-----------------------------------------------------------------|
 e------------------------------------------|
 b------------------------------------------|
 g--9-----9-----9-----9-----9-----9-----9\--|
 d--9--9--9--9--9--9--9--9--9--9--9--9--9\--|
 a--7--9--7--9--7--9--7--9--7--9--7--9--7\--|
 e--0--7--0--7--0--7--0--7--0--7--0--7--0---|

Then it jumps straight into the next song...
 
 ----Long Live The Weekend---

Intro/Verse:
 
 e--7-7-7-7-7--7-7-7-7-7-7--\----------------------------|
 b--7-7-7-7-8--8-8-7-7-7-8--\----------------------------|
 g--7-7-7-7-9--9-9-7-7-7-9--\--5--7--7-5--7-5-7-5-7b8-5--|
 d--9-9-9-9-9--9-9-9-9-9-9--\--5--5--5-5--5-5-5-5-5---5--| x4
 a--7-7-7-7-7--7-7-7-7-7-7--\--3--3--3-3--3-3-3-3-3---3--|
 a-------------------------------------------------------|

Pre-Chorus:
 
 e--0--0--0-0-0--2--2-2-2-2-2-2-2--0--0--0-0-0--2--2-2-2-2-2-2-2--|
 b--1--1--1-1-1--3--3-3-3-3-3-3-3--0--0--0-0-0--3--3-3-3-3-3-3-3--|
 g--2--2--2-2-2--2--2-2-2-2-2-2-2--0--0--0-0-0--4--4-4-4-4-4-4-4--|
 d--2--2--2-2-2--0--0-0-0-0-0-0-0--2--2--2-2-2--4--4-4-4-4-4-4-4--|
 a--0--0--0-0-0--------------------2--2--2-2-2--2--2-2-2-2-2-2-2--|
 e---------------------------------0--0--0-0-0--------------------|
 e-------------------------------|
 b--5--5-5-5-5-5-5------7--7--7--|
 g--5--5-5-5-5-5-5------7--7--7--|
 d--5--5-5-5-5-5-5--7-7-7--7--7--|
 a--3--3-3-3-3-3-3--5-5-5--6--6--|
 e-------------------------------|

pm.
Chorus:
 
 e--7--7--7--7-7--2-2-2--2-2-2-2------------------------------|
 b--8--8--8--8-8--3-3-3--3-3-3-3------------------------------|
 g--9--9--9--9-9--4-4-4--4-4-4-4---5-5-5-5-4--5-5-5-5-4--4-4--|
 d--9--9--9--9-9--4-4-4--4-4-4-4---5-5-5-5-5--5-5-5-5-5--5-5--| x2
 a--7--7--7--7-7--2-2-2--2-2-2-2---3-3-3-3-3--3-3-3-3-3--3-3--|
 e--0--0--0--0-0----------------------------------------------|

Post Chorus:
 
 e------------------------0------3--2--|
 b--5---5---5--5---5---5--0------3--3--|
 g--5---5---5--5---5---5--0------0--2--|
 d--5---5---5--5---5---5--2------0--0--|
 a--3---3---3--3---3---3--2------2-----|
 e------------------------0------3-----|

Verse 2:
Pre-Chorus
Chorus
Post Chorus:
 
 e------------------------3-------|
 b--5---5---5--5---5---5--5-------|
 g--5---5---5--5---5---5--5-------|
 d--5---5---5--5---5---5--5-------|
 a--3---3---3--3---3---3--3-------|
 e--------------------------------|

Pre-Solo:
 
 e--------------------------------------------------------------------|
 b--------------------------------------------------------------------|
 g-------------------------------------------------------------0-2/4--|
 d---------------------------------------------------------0-2--------| x2
 a------7-7-----7-7-----7-7-----7-7--------------------0-2------------|
 e--0-0-----0-0-----0-0-----0-0------3-3-3-3-3-3-3-3-3----------------|
 e------5------5------5------5------5------5------5------5--|
 b------5------5------5------5------5------5------5------5--|
 g------5------5------5------5------5------5------5------5--|
 d--7-7-7--7-7-7--7-7-7--7-7-7--7-7-7--7-7-7--7-7-7--7-7-7--|
 a--7-7-7--7-7-7--7-7-7--7-7-7--7-7-7--7-7-7--7-7-7--7-7-7--|
 e--5-5-5--5-5-5--5-5-5--5-5-5--5-5-5--5-5-5--5-5-5--5-5-5--|

pm. ... ... ... ... ... ... ...
 
 e--------------------------------------|
 b--7--------5--------7--------5--------|
 g--7--------5--------7--------5--------|
 d--7--------5--------7--------5--------|
 a--5--------3--------5--------3--------|
 e--------------------------------------|

Solo: Rythym plays verse
 
 e--0--0-0-0-0-0-0-0-0-0-0-0-0-0-0-|-0------------------------------|
 b--0--0-0-0-0-0-0-0-0-0-0-0-0-0-0-|-0------------------------------|
 g--3^-^-^-^-^-^-^-^-^-^-^-^-^-^-^-|-3^-2p0-------------------------|
 d---------------------------------|--------2~---0-2~-0-2-0-2-0-2-0-|
 a---------------------------------|--------------------------------|
 e---------------------------------|--------------------------------|

^Keep string bent
 
 e-------0----0------0----0----------------------------------|
 b-----0----0------0----0---0-----3/5------------------------|
 g--/4----2-----/4-----2----2/4---4/5--7--7-5--7-5-7-5-7b-5--|
 d-------------------------------------5--5-5--5-5-5-5-5--5--|
 a-------------------------------------3--3-3--3-3-3-3-3--3--|
 e-----------------------------------------------------------|

Pre-Chorus: Lead bit over pre chorus
 
 e------------------------------------------------------------|
 b--5-------7-7-----------------3-3--0-0--1-1-------3-3--4-4--|
 g-----7-7-------5-5--4-4--0-0-----------------0-0------------|
 d------------------------------------------------------------|
 a------------------------------------------------------------|
 e------------------------------------------------------------|

Chorus
Outro:
 
 e--3--2-2--0-0--2-2-------------------------------------|
 b--3--3-3--0-0--3-3----5-5-5-5-5-5-5-5-5-5-5-5-5-5-5-5--|
 g--4--2-2--0-0--4-4----5-5-5-5-5-5-5-5-5-5-5-5-5-5-5-5--|
 d--5--0-0--2-2--4-4----5-5-5-5-5-5-5-5-5-5-5-5-5-5-5-5--|
 a----------------------3-3-3-3-3-3-3-3-3-3-3-3-3-3-3-3--|
 e-------------------------------------------------------|
 e--3----0----2---------3--------3----|
 b--3----3----3----5----3--------3----|
 g--0----2----4----5----4--------4----|
 d--0----0----4----5----5--------5----|
 a--2---------2----3----5--------5----|
 e--3-------------------3--------3----|
 ----No Way Out----

Intro/Verse:
 
 e---------------------------------------------------------------------|
 b------4-------4-------4-------4-------3-------3-------3-------3------|
 g----1---1---1---1---1---1---1---1---3---3---3---3---3---3---3---3----|
 d--3-------3-------3-------3-------3-------3-------3-------3----------|
 a---------------------------------------------------------------------|
 e---------------------------------------------------------------------|

Just repeat this as many times as u need too!
Chorus:
 
 e--------------------------------------------------------------------------------------|
 b---------------------------------------------------6-6-6-6-6-6-6-6-6-6-6-6-6-6-6-6----|
 g--10-10-10-10-10-10-10-10-10-10-10-10-10-10-10-10--6-6-6-6-6-6-6-6-6-6-6-6-6-6-6-6----|
 d--8--8--8--8--8--8--8--8--8--8--8--8--8--8--8--8---8-8-8-8-8-8-8-8-8-8-8-8-8-8-8-8----| x2
 a--8--8--8--8--8--8--8--8--8--8--8--8--8--8--8--8---8-8-8-8-8-8-8-8-8-8-8-8-8-8-8-8----|
 e--6--6--6--6--6--6--6--6--6--6--6--6--6--6--6--6---6-6-6-6-6-6-6-6-6-6-6-6-6-6-6-6----|
 e-------------------------------------|
 b--6-6-6-6-6-6-6-6-6-6-6-6-6-6-6-6----|
 g--6-6-6-6-6-6-6-6-6-6-6-6-6-6-6-6----|
 d--8-8-8-8-8-8-8-8-8-8-8-8-8-8-8-8----|
 a--9-9-9-9-9-9-9-9-9-9-9-9-9-9-9-9----|
 e--6-6-6-6-6-6-6-6-6-6-6-6-6-6-6-6----|

Verse
Chorus
Bridge:
 
 e--------------------------------------------------------------------|
 b--------------------------------------------------------------------|
 g-----------------------------------8-8-8-8-8-8-8-8-8-8-8-8-8-8-8-8--|
 d--8-8-8-8-8-8-8-8-8-8-8-8-8-8-8-8--8-8-8-8-8-8-8-8-8-8-8-8-8-8-8-8--| x2
 a--8-8-8-8-8-8-8-8-8-8-8-8-8-8-8-8--6-6-6-6-6-6-6-6-6-6-6-6-6-6-6-6--|
 e--6-6-6-6-6-6-6-6-6-6-6-6-6-6-6-6-----------------------------------|

"Will we ever get back home"
 
 e----------------------------------------|
 b----------------------------------------|
 g----------------------------------------|
 d--4-4-4-4-4-4-4-4-4-4-4-4-4-4--6-6-6----|
 a--4-4-4-4-4-4-4-4-4-4-4-4-4-4--6-6-6----|
 e--2-2-2-2-2-2-2-2-2-2-2-2-2-2--4-4-4----|
 e--------------------------------------------------------------------|
 b--------------------------------------------------------------------|
 g-----------------------------------8-8-8-8-8-8-8-8-8-8-8-8-8-8-8-8--|
 d--8-8-8-8-8-8-8-8-8-8-8-8-8-8-8-8--8-8-8-8-8-8-8-8-8-8-8-8-8-8-8-8--| x2
 a--8-8-8-8-8-8-8-8-8-8-8-8-8-8-8-8--6-6-6-6-6-6-6-6-6-6-6-6-6-6-6-6--|
 e--6-6-6-6-6-6-6-6-6-6-6-6-6-6-6-6-----------------------------------|

"I cant see the way out"
 
 e--2-2-2-2-2-2-2-2-2-2-2-2-2-2-2-2-2--2-2-2-2-2-2-2-2-2-2-2-2-2-2-2-2----|
 b--2-2-2-2-2-2-2-2-2-2-2-2-2-2-2-2-2--2-2-2-2-2-2-2-2-2-2-2-2-2-2-2-2----|
 g--3-3-3-3-3-3-3-3-3-3-3-3-3-3-3-3-3--2-2-2-2-2-2-2-2-2-2-2-2-2-2-2-2----|
 d--4-4-4-4-4-4-4-4-4-4-4-4-4-4-4-4-4--4-4-4-4-4-4-4-4-4-4-4-4-4-4-4-4----|
 a--4-4-4-4-4-4-4-4-4-4-4-4-4-4-4-4-4--4-4-4-4-4-4-4-4-4-4-4-4-4-4-4-4----|
 e--2-2-2-2-2-2-2-2-2-2-2-2-2-2-2-2-2--2-2-2-2-2-2-2-2-2-2-2-2-2-2-2-2----|

Outro:
 
 e--2-2-2-2-2-2-2-2-2-2-2-2-2-2-2-2-2--2-2-2-2-2-2-2-2-2-2-2-2-2-2-2-2----|
 b--2-2-2-2-2-2-2-2-2-2-2-2-2-2-2-2-2--2-2-2-2-2-2-2-2-2-2-2-2-2-2-2-2----|
 g--3-3-3-3-3-3-3-3-3-3-3-3-3-3-3-3-3--2-2-2-2-2-2-2-2-2-2-2-2-2-2-2-2----|
 d--4-4-4-4-4-4-4-4-4-4-4-4-4-4-4-4-4--4-4-4-4-4-4-4-4-4-4-4-4-4-4-4-4----|
 a--4-4-4-4-4-4-4-4-4-4-4-4-4-4-4-4-4--4-4-4-4-4-4-4-4-4-4-4-4-4-4-4-4----|
 e--2-2-2-2-2-2-2-2-2-2-2-2-2-2-2-2-2--2-2-2-2-2-2-2-2-2-2-2-2-2-2-2-2----|
 ----We Want More----

Intro:
 
 e----------------------------------------------------------|
 b--2-2-2--2-2-2--2-2-2--2-2-2--2-2-2--2-2-2--2-2-2--2-2-2--|
 g--4-4-4--4-4-4--4-4-4--4-4-4--4-4-4--4-4-4--4-4-4--4-4-4--|
 d--3-3-3--3-3-3--3-3-3--3-3-3--3-3-3--3-3-3--3-3-3--3-3-3--|
 a--4-4-4--4-4-4--4-4-4--4-4-4--4-4-4--4-4-4--4-4-4--4-4-4--|
 e----------------------------------------------------------|

Verse:
 
 e-----------------------------------------|---------------------------------|
 b-----------------------------------------|---------------------------------|
 g------------------7--7--7--7-7-----------|---------------------------------|
 d--4--4--4----4----7--7--7--7-7--0--(x3)--|--4--4-4--2--2-2--4--4--4---4----|
 a--4--4--4----4----5--5--5--5-5--0--------|--4--4-4--2--2-2--4--4--4---4----|
 e--2--2--2p0--2p0----------------0--------|--2--2-2--0--0-0--2--2--2p0-2p0--|

Pre Chorus:
 
 e--------------------------------------------------------|
 b--------------------------------------------------------|
 g--4--4--4-4--2--4--4--4-4--6--7--7--7-7--7--9--9--9--9--|
 d--4--4--4-4--2--4--4--4-4--6--7--7--7-7--7--9--9--9--9--|
 a--2--2--2-2--0--2--2--2-2--4--5--5--5-5--5--7--7--7--7--|
 e--------------------------------------------0--0--0--0--|

Chorus:
 
 e--2--2--2--------------------------|--2--2--2--2--4--4--4--4--------------------------------------------|
 b--2--2--2--------------------------|--2--2--2--2--5--5--5--5--------------------------------------------|
 g--2--2--2-----7--7--7--7-----------|--2--2--2--2--6--6--6--6--6/7-7-7--7-6/7-7-7--7-6/7-7-7--7-6/7-7-7--|
 d--4--4--4--7--7--7--7--7--0--------|--4--4--4--4--6--6--6--6--x-x-x-x--x-x-x-x-x--x-x-x-x-x--x-x-x-x-x--|
 a--4--4--4--7--5--5--5--5--0--(x2)--|--4--4--4--4--4--4--4--4--4/5-5-5--5-4/5-5-5--5-4/5-5-5--5-4/5-5-5--|
 e--2--2--2--5--------------0--------|--2--2--2--2--------------------------------------------------------|
 e--2--2--2--2--4--4--4--4------------------------------------------------------------------|
 b--3--3--3--3--5--5--5--5--7--7--7--7--5------5------2--2----------------------------------|
 g--4--4--4--4--6--6--6--6--7--7--7--7--6------6------4--4----------------------------------|
 d--4--4--4--4--6--6--6--6--7--7--7--7--6------6------3--3--4--4--4----4----4--4--4----4----|
 a--2--2--2--2--4--4--4--4--5--5--5--5--4------4------4--4--4--4--4----4----4--4--4----4----|
 e----------------------------------------------------------2--2--2p0--2p0--2--2--2p0--2p0--|

Verse:
 
 e-----------------------------------------|---------------------------------|
 b-----------------------------------------|---------------------------------|
 g------------------7--7--7--7-7-----------|---------------------------------|
 d--4--4--4----4----7--7--7--7-7--0--(x3)--|--4--4-4--2--2-2--4--4--4---4----|
 a--4--4--4----4----5--5--5--5-5--0--------|--4--4-4--2--2-2--4--4--4---4----|
 e--2--2--2p0--2p0----------------0--------|--2--2-2--0--0-0--2--2--2p0-2p0--|

Chorus:
 
 e--2--2--2--------------------------|--2--2--2--2--4--4--4--4--------------------------------------------|
 b--2--2--2--------------------------|--2--2--2--2--5--5--5--5--------------------------------------------|
 g--2--2--2-----7--7--7--7-----------|--2--2--2--2--6--6--6--6--6/7-7-7--7-6/7-7-7--7-6/7-7-7--7-6/7-7-7--|
 d--4--4--4--7--7--7--7--7--0--------|--4--4--4--4--6--6--6--6--x-x-x-x--x-x-x-x-x--x-x-x-x-x--x-x-x-x-x--|
 a--4--4--4--7--5--5--5--5--0--(x2)--|--4--4--4--4--4--4--4--4--4/5-5-5--5-4/5-5-5--5-4/5-5-5--5-4/5-5-5--|
 e--2--2--2--5--------------0--------|--2--2--2--2--------------------------------------------------------|

Solo:
 
 e--14--14--x-x-x-x-x--14--14--x-x-x-x-x--|--13/14-14-14-14-14--------|
 b--14--14--x-x-x-x-x--14--14--x-x-x-x-x--|--13/14-14-14-14-14--------|
 g--14--14--x-x-x-x-x--14--14--x-x-x-x-x--|--13/14-14-14-14-14--(x6)--|
 d--16--16--x-x-x-x-x--16--16--x-x-x-x-x--|---------------------------|
 a----------------------------------------|---------------------------|
 e----------------------------------------|---------------------------|
 e---------------------------------------------------------------------------------------------------------------------------------|
 b---------------------------------------------------------------------------------------------------------------------------------|
 g--11------11---11-11-11-11-11-11-11----------------11---------11---------11---------11---------11---------11---------11----------|
 d---9^^v-7--9^^-^^-^^-^^-^^-^^-^^--9^^v-7~--9h10h11----9h10h11----9h10h11----9h10h11----9h10h11----9h10h11----9h10h11----9h10h11--|
 a---------------------------------------------------------------------------------------------------------------------------------|
 e---------------------------------------------------------------------------------------------------------------------------------|

^^Hold bend
 
 e----5p2-5b----5p2-5b----5p2-5b----5p2-5b----5-----5-----5-----5-----8------11------14-----------|
 b--2-4p2-4b--2-4p2-4b--2-4p2-4b--2-4p2-4b------7p4---7p4---7p4---7p4---10p7----10p7----14p12-----|
 g--------------------------------------------------------------------------------------------11--|
 d------------------------------------------------------------------------------------------------|
 a------------------------------------------------------------------------------------------------|
 e------------------------------------------------------------------------------------------------|
 e-----------------------------------------------------------------------------------------|
 b-----------------------------------------------------------------------------------------|
 g--7-7-7-7-7-7--9-9-9-9-9-9-11-11-11-11-11-11--13-13-13-13-13-13--14-14-14-14-14-14-------|
 d--x-x-x-x-x-x--x-x-x-x-x-x--x--x--x--x--x--x---x--x--x--x--x--x---x--x--x--x--x--x-------|
 a--5-5-5-5-5-5--7-7-7-7-7-7--9--9--9--9--9--9--11-11-11-11-11-11--12-12-12-12-12-12--etc--|
 e-----------------------------------------------------------------------------------------|
 e-------------------------------------------------------------------------------------------------------------------|
 b--------------------------------------12--12--12--14--14--14--15--15--15--17--17--17--18--18--18--18--18--18-------|
 g--11--11--11--11--13--13--14--14--14---x---x---x---x---x---x---x---x---x---x---x---x---x---x---x---x---x---x-------|
 d---x---x---x---x---x---x---x---x---x---9---9---9--11--11--11--12--12--12--14--14--14--15--15--15--15--15--15--etc--|
 a---9---9---9--11--11--11--12--12--12-------------------------------------------------------------------------------|
 e-------------------------------------------------------------------------------------------------------------------|

Verse:
 
 e-----------------------------------------|---------------------------------|
 b-----------------------------------------|---------------------------------|
 g------------------7--7--7--7-7-----------|---------------------------------|
 d--4--4--4----4----7--7--7--7-7--0--(x3)--|--4--4-4--2--2-2--4--4--4---4----|
 a--4--4--4----4----5--5--5--5-5--0--------|--4--4-4--2--2-2--4--4--4---4----|
 e--2--2--2p0--2p0----------------0--------|--2--2-2--0--0-0--2--2--2p0-2p0--|

Pre Chorus:
 
 e--------------------------------------------------------|
 b--------------------------------------------------------|
 g--4--4--4-4--2--4--4--4-4--6--7--7--7-7--7--9--9--9--9--|
 d--4--4--4-4--2--4--4--4-4--6--7--7--7-7--7--9--9--9--9--|
 a--2--2--2-2--0--2--2--2-2--4--5--5--5-5--5--7--7--7--7--|
 e--------------------------------------------0--0--0--0--|

Chorus:
 
 e--2--2--2--------------------------|--2--2--2--2--4--4--4--4--------------------------------------------|
 b--2--2--2--------------------------|--2--2--2--2--5--5--5--5--------------------------------------------|
 g--2--2--2-----7--7--7--7-----------|--2--2--2--2--6--6--6--6--6/7-7-7--7-6/7-7-7--7-6/7-7-7--7-6/7-7-7--|
 d--4--4--4--7--7--7--7--7--0--------|--4--4--4--4--6--6--6--6--x-x-x-x--x-x-x-x-x--x-x-x-x-x--x-x-x-x-x--|
 a--4--4--4--7--5--5--5--5--0--(x2)--|--4--4--4--4--4--4--4--4--4/5-5-5--5-4/5-5-5--5-4/5-5-5--5-4/5-5-5--|
 e--2--2--2--5--------------0--------|--2--2--2--2--------------------------------------------------------|

Outro:
 
 e---------------------------|
 b--5------5------2--2-------|
 g--6------6------4--4-------|
 d--6------6------3--3--4----|
 a--4------4------4--4--4----|
 e----------------------2----|
 ----Wake Up---

Intro/Verse:
 
 |---------------------------------------------------------------------------|
 |---------------------------------------------------------------------------|
 |-----4---2----------0---------------4---2-----------2----------------------|
 |---0-------4------2-----4-2-------0-------4-------2-----2-4----------------|
 |-2-----2------------------------2-----2------------------------------------|
 |----------------0-----0-------------------------0-----0--------------------|
 |--------------------------------------------------------------------|
 |--------------------------------------------------------------------|
 |-----4---2----------2--------------4---2----------------------------|
 |-2-----2----------------------2------2-----------------4444444------|
 |----------------0-----0--------------------------------2222222------|

Chorus:
[B] [D] [A] [F#] [B]  
 
 e|------------------------------------------------------------------------|
 B|------------------------------------------------------------------------|
 G|-44444444-77777777------------------------4444444444444444--------------|
 D|-44444444-77777777-77777777-44444444-(x2)-4444444444444444--------------|
 A|-22222222-55555555-77777777-44444444------2222222222222222--------------|
 E|-------------------55555555-22222222------------------------------------|

Keep on Playing "B" Till Next Verse Begings
Second Verse:
[B] [E] [B] [A] [B] [G]  
 
 e|----------------------------------------------------------------------|
 B|----------------------------------------------------------------------|
 G|-44444444----------44444444-22222222-44444444-------------------------|
 A|-22222222-22222222-22222222-00000000-22222222-55555555----------------|
 E|----------00000000----------------------------33333333----------------|

[F#]  
 
 e|---------------------------------------------------------|
 B|---------------------------------------------------------|
 G|---------------------------------------------------------|
 D|-4444444444444444----------------------------------------|
 A|-4444444444444444----------------------------------------|
 E|-2222222222222222----------------------------------------|

Chorus:
[B] [D] [A] [F#] [B]  
 
 e|---------------------------------------------------------------|
 B|---------------------------------------------------------------|
 G|-44444444-77777777---------------------------44444444----------|
 A|-22222222-55555555-77777777-44444444---------22222222----------|
 E|-------------------55555555-22222222---------------------------|

Bridge:
[B]  
 
 e|----------------------------|
 B|----------------------------|
 G|-4--x-x-x-x-x-x-------------|
 A|-2--x-x-x-x-x-x-------------|
 E|----------------------------|

[B] [G] [A] [F#]  
 
 e|--------------------------------------------------------------|
 B|--------------------------------------------------------------|
 G|-44444444-----------------------------------------------------|
 D|-44444444-55555555-77777777-44444444--------------------------|
 A|-22222222-55555555-77777777-44444444--------------------------|
 E|----------33333333-55555555-22222222--------------------------|

[B] [F#]  
 
 e|-------------------------------------------|
 B|-------------------------------------------|
 G|-4444444444444444--------------------------|
 D|-4444444444444444-4444444444444444---------|
 A|-2222222222222222-4444444444444444---------|
 E|------------------2222222222222222---------|

Intro/Verse:
 
 |---------------------------------------------------------------------------|
 |---------------------------------------------------------------------------|
 |-----4---2----------0---------------4---2-----------2----------------------|
 |---0-------4------2-----4-2-------0-------4-------2-----2-4----------------|
 |-2-----2------------------------2-----2------------------------------------|
 |----------------0-----0-------------------------0-----0--------------------|
 |-------------------------------------------------------------|
 |-------------------------------------------------------------|
 |-----4---2----------2--------------4---2---------------------|
 |-2-----2----------------------2------2-----------------------|
 |----------------0-----0--------------------------------------|

Then the pard where the kids are singin':
 
 e|-------2--------0-3----------2----------0--------|
 B|-----3---------(5)---------3----------2----------|
 G|-4-4--------4-4--------4-4--------3-3------------|
 D|------------------------------------------(x4)---|
 A|-------------------------------------------------|
 E|-------------------------------------------------|

End On:
|---|
|---|
|-4-|
|-4-|
|-2-|
|---|
 
 -----What?s On Your Radio?---

Intro: Slight delay effect
 
 e---12-12-12---12-12-12---12-12-12---12---12--12-12-12---12---|
 b---x--x--x----x--x--x----x--x--x----x----x---x--x--x----x----|
 g---9--9--9----9--9--9----9--9--9----9----9---9--9--9----9----|
 d-------------------------------------------------------------| x3
 a-------------------------------------------------------------|
 e-------------------------------------------------------------|

Pre Verse:
 
 e----------------------------|
 b----------------------------|
 g--9----------9---5--4--7----|
 d--9----------9---5--4--7----|
 a--7--7-7-7-7-7---3--2--5----|
 e--0--0-0-0-0-0--------------|

pm.....
Verse: Sounds like he's doing this on the track, but live he just
plays a normal E barre chord. Do what you want.
 
 e--12---------12----------------|
 b--x----------x-----------------|
 g--9----------9-----------------|
 d--9--9-9-9-9-9--9-9-9-9-9-9----| Repeat as needed
 a-------------------------------|
 e-------------------------------|

pm..... ...........
"What's your problem,
what's on your mind..."
Pre Chorus:
 
 e--------------------------------------|
 b--------------------4---4--4--4--4----|
 g--4----2-4----2-4---4---4--4--4--4----|
 d--4----2-4----2-4---4---4--4--4--4----|
 a--2----0-2----0-2---2---2--2--2--2----|
 e--------------------------------------|

"You've got your problems,
well I've got mine..."
Chorus:
 
 e--7----------7--------------------|-----|
 b--8----------8--------------------|--7--|
 g--9----------9--------------------|--7--|
 d--9----------9---------------(x3)-|--7--|
 a--7--7-7-7-7-7--7-7-7-7-7-7-------|--5--|
 e--0--0-0-0-0-0--0-0-0-0-0-0-------|-----|

pm..... ...........
"What's on your radio..."
 
 e--7----------7--------------------|-----------5------------3-2--3----------------------|
 b--8----------8--------------------|--7----7-----7--------5--------5--------------------|
 g--9----------9--------------------|--7--7---7-----7----5-------------5--5--5--5--5--5--|
 d--9----------9---------------(x3)-|--7--------------7--5-------------7--7--7--7--7--7--|
 a--7--7-7-7-7-7--7-7-7-7-7-7-------|--5-----------------3-------------7--7--7--7--7--7--|
 e--0--0-0-0-0-0--0-0-0-0-0-0-------|----------------------------------5--5--5--5--5--5--|

pm..... ...........
Pre Verse
Verse
Pre Chorus
Chorus
Solo: Rythym plays Am, E
Fast, with Delay effect
 
 e--------0-------0-------0---------0--------0---------0----------0----------0--|
 b--5h6h7---6h7h8---7h8h9---9h10h11---8h9h11---9h11h12---10h11h12---11h12h13----|
 g------------------------------------------------------------------------------|
 d------------------------------------------------------------------------------|
 a------------------------------------------------------------------------------|
 e------------------------------------------------------------------------------|
 e--12-12-10-12-12-12-10-12-12-12-10-12-12-12-10--/12-12-12-12---------------------------------------/--|
 b--13-13-12-13-13-13-12-13-13-13-12-13-13-13-12---------------12-12-12-12---------------------------/--|
 g-------------------------------------------------------------------------9-9-9-9-------------------/--|
 d---------------------------------------------------------------------------------8-8-8-8-9-9-9-9\--/--|
 a---------------------------------------------------------------------------------------------------/--|
 e---------------------------------------------------------------------------------------------------/--|
 e--------------------------10------10------10--10-12--------10---------------------|
 b--------------------------12p0----12p0----12--12/13--11h12----12~-12\------8------|
 g----7-----7-----7---9~---------12------12------------------------------7h9---9~\--|
 d----9p0---9p0---9--10~------------------------------------------------------------|
 a--0-----0-----0-------------------------------------------------------------------|
 e----------------------------------------------------------------------------------|

pm ... ...
 
 e-----------------------------------------------------------------------------11---|
 b--12h13p12----------------12--------------------------13-12~--------------13-12---|
 g--11-------14p12p11----------14p12p11-----------11h12---------------11h12---------|
 d--------------------14p12-------------14p12-/13-----------------/13---------------|
 a----------------------------------------------------------------------------------|
 e----------------------------------------------------------------------------------|
 e---------------11-----------------11--12--13--14--16b~----|
 b------------13-12--------------13-12--13--14--15--17b~----|
 g------11h12--------------11h12----------------------------|
 d--/13----------------/13----------------------------------|
 a----------------------------------------------------------|
 e----------------------------------------------------------|

Bridge is basically Pre Verse and Chorus.
You have everything you need up there.
Finish on:
 
 e-----------------------------|
 b-----------------------------|
 g--9----------9---5--4--7-----|
 d--9----------9---5--4--7--2--|
 a--7--7-7-7-7-7---3--2--5--2--|
 e--0--0-0-0-0-0------------0--|

pm.....
 
 ----Nothing Last Forever----

Intro:
Rythym
 
 e--3-------------------------------2----------------------------------|
 b--3-----3-----3---3-----3-----3---3-----3-----3---3-----3-----3------|
 g--0-0-0-0-0-0-0-0-0-0-0-0-0-0-0-0-0-0-0-0-0-0-0-0-0-0-0-0-0-0-0-0----|
 d--5-5-5-5-5-5-5-5-5-5-5-5-5-5-5-5-5-5-5-5-5-5-5-5-5-5-5-5-5-5-5-5----|
 a---------------------------------------------------------------------|
 e---------------------------------------------------------------------|

Lead
 
 e---------------------------10-------------------------------10-------|
 b------------------------------10/12~---------------------------12----|
 g---------------------------------------------------------------------|
 d---------------------------------------------------------------------|
 a---------------------------------------------------------------------|
 e---------------------------------------------------------------------|

Rythym
 
 e--2-------------------------------2----------------------------------|
 b--3-----3-----3---3-----3-----3---3-----3-----3---3-----3-----3------|
 g--2-2-2-2-2-2-2-2-2-2-2-2-2-2-2-2-2-2-2-2-2-2-2-2-2-2-2-2-2-2-2-2----|
 d--0-0-0-0-0-0-0-0-0-0-0-0-0-0-0-0-0-0-0-0-0-0-0-0-0-0-0-0-0-0-0-0----|
 a---------------------------------------------------------------------|
 e---------------------------------------------------------------------|

Lead
 
 e---------------------------10----10-------------------------10-------|
 b--12-10~----------------------10-12-10-------------------------10----|
 g---------------------------------------------------------------------|
 d---------------------------------------------------------------------|
 a---------------------------------------------------------------------|
 e---------------------------------------------------------------------|

Rythym
 
 e--3-------------------------------2----------------------------------|
 b--3-----3-----3---3-----3-----3---3-----3-----3---3-----3-----3------|
 g--0-0-0-0-0-0-0-0-0-0-0-0-0-0-0-0-0-0-0-0-0-0-0-0-0-0-0-0-0-0-0-0----|
 d--5-5-5-5-5-5-5-5-5-5-5-5-5-5-5-5-5-5-5-5-5-5-5-5-5-5-5-5-5-5-5-5----|
 a---------------------------------------------------------------------|
 e---------------------------------------------------------------------|

Lead
 
 e---------------------------10---------------------------------5------|
 b--12~--------------------------10/12~---------------------------7----|
 g---------------------------------------------------------------------|
 d---------------------------------------------------------------------|
 a---------------------------------------------------------------------|
 e---------------------------------------------------------------------|

Rythym
 
 e--0------------------------------------------------------------------|
 b--0-------------------------------0-----0-----0-0-3-3-3-3-3-3-3-3----|
 g--2-2-2-2-2-2-2-2-2-2-2-2-2-2-2-2-2-2-2-2-2-2-2-2-2-2-2-2-2-2-2-2----|
 d--2-2-2-2-2-2-2-2-2-2-2-2-2-2-2-2-2-2-2-2-2-2-2-2-2-2-2-2-2-2-2-2----|
 a--0-0-0-0-0-0-0-0-0-0-0-0-0-0-0-0-0-0-0-0-0-0-0-0-0-0-0-0-0-0-0-0----|
 e---------------------------------------------------------------------|

Lead
 
 e---------------------------------------------------------------------|
 b--7--5~--------------------------------------------------------------|
 g---------------------------------------------------------------------|
 d---------------------------------------------------------------------|
 a---------------------------------------------------------------------|
 e---------------------------------------------------------------------|

Verse:
 
 e-----------------------------------|
 b-----------------------------------|
 g-----------------------------------|
 d--4---4---4---4-2-4-2-0---2---2----| Repeat as necesary
 a--5-5-5-5-5-5-5-5-5-5-5-5-5-5-5-5--|
 e-----------------------------------|

pm.............................
Halfway through the verse, a second guitar comes in:
 
 e-----------------------------------|
 b--3---3---3---3-2-0---0---2---2----|
 g--2-2-2-2-2-2-2-2-2-2-2-2-2-2-2-2--|
 d-----------------------------------| Repeat as necesary
 a-----------------------------------|
 e-----------------------------------|

pm.............................
Pre Chorus:
 
 e---------------------------------------------------------------------|
 b--0-------------------------------0----------------------------------|
 g--0-0-0-0-0-0-0-0-0-0-0-0-0-0-0-0-0-0-0-0-0-0-0-0-0-0-0-0-0-0-0-0----|
 d--2-2-2-2-2-2-2-2-2-2-2-2-2-2-2-2-2-2-2-2-2-2-2-2-2-2-2-2-2-2-2-2----|
 a--0-0-0-0-0-0-0-0-0-0-0-0-0-0-0-0-0-0-0-0-0-0-0-0-0-0-0-0-0-0-0-0----|
 e---------------------------------------------------------------------|

Chorus:
Rythym
 
 e--3-------------------------------2----------------------------------|
 b--3-3-3-3-3-3-3-3-3-3-3-3-3-3-3-3-3-3-3-3-3-3-3-3-3-3-3-3-3-3-3-3----|
 g--0-0-0-0-0-0-0-0-0-0-0-0-0-0-0-0-0-0-0-0-0-0-0-0-0-0-0-0-0-0-0-0----|
 d--5-5-5-5-5-5-5-5-5-5-5-5-5-5-5-5-5-5-5-5-5-5-5-5-5-5-5-5-5-5-5-5----|
 a---------------------------------------------------------------------|
 e---------------------------------------------------------------------|

Lead
 
 e---------------------------10-------------------------------10-------|
 b-/12~-------------------------10/12~---------------------------12----|
 g---------------------------------------------------------------------|
 d---------------------------------------------------------------------|
 a---------------------------------------------------------------------|
 e---------------------------------------------------------------------|

Rythym
 
 e--2-------------------------------2----------------------------------|
 b--3-3-3-3-3-3-3-3-3-3-3-3-3-3-3-3-3-3-3-3-3-3-3-3-3-3-3-3-3-3-3-3----|
 g--2-2-2-2-2-2-2-2-2-2-2-2-2-2-2-2-2-2-2-2-2-2-2-2-2-2-2-2-2-2-2-2----|
 d--0-0-0-0-0-0-0-0-0-0-0-0-0-0-0-0-0-0-0-0-0-0-0-0-0-0-0-0-0-0-0-0----|
 a---------------------------------------------------------------------|
 e---------------------------------------------------------------------|

Lead
 
 e----------------------------10------------------------------10-------|
 b--10~--------------------------12-10---------------------------10----|
 g---------------------------------------------------------------------|
 d---------------------------------------------------------------------|
 a---------------------------------------------------------------------|
 e---------------------------------------------------------------------|

Rythym
 
 e--3-------------------------------2----------------------------------|
 b--3-3-3-3-3-3-3-3-3-3-3-3-3-3-3-3-3-3-3-3-3-3-3-3-3-3-3-3-3-3-3-3----|
 g--0-0-0-0-0-0-0-0-0-0-0-0-0-0-0-0-0-0-0-0-0-0-0-0-0-0-0-0-0-0-0-0----|
 d--5-5-5-5-5-5-5-5-5-5-5-5-5-5-5-5-5-5-5-5-5-5-5-5-5-5-5-5-5-5-5-5----|
 a---------------------------------------------------------------------|
 e---------------------------------------------------------------------|

Lead
 
 e---------------------------10-------------------------------10-------|
 b-/12~-------------------------10/12~---------------------------12----|
 g---------------------------------------------------------------------|
 d---------------------------------------------------------------------|
 a-----

Important: The song above is NOT stored on the Chordie server. The original song is hosted at www.guitaretab.com. Chordie works as a search engine and provides on-the-fly formatting. Chordie does not index songs against artists'/composers' will. To remove this song please click here.

Text color:
Chord color:
Chord grids: 
Font size:    
Page size: 

A B D E F# G
Rate #0 of 1 versions

Login - add to songbook

SHARE PAGE  




You need to log in to post comments